Here Without You Bass Tab - 3 Doors Down






here without you
3 doors down
bass tab

verse i: bass muted

chorus i
  D       A        Bm       G   A
-----------------------------------------------|
-----------------------------------------------|
--5----------------2---------------------------|
----------5-----------------3---5--------------|
verse ii
   Bm        A         Bm    G     A
---------------------------------------------|
---------------------------------------------|
-2-22-4--------------2-22-4-------55---------|
----------5-55-7-5-----------33--------------|

chorus ii
  D       A        Bm    G    A
---------------------------------------------|
---------------------------------------------|
-5-55------------2-22-4----------------------|
--------5-55-7-----------33---55-------------|

bridge
  Bm    D     A    G
---------------------------------------------|
---------------------------------------------|
-2-22--5-55-------3-33-----------------------|
-------------5-55----------------------------|

thats it.. i know mali pero ok na yan.. basta may kasabay lang sa beat ang drums.

ĂŽnscrie-te la newsletter


Like us on Facebook