Here Without You Intro Tab - 3 Doors Down






-------------------------------------------------------------------------------
     Here With Out You-3 Doors Down
-------------------------------------------------------------------------------


By:Dale Bradford (dabrad4d@hotmail.com for questions
     
Hey guys this is best played with a capo. but will sound good to with out one.
put the capo on the first fret 
e-mail me with any questions. This is my first tab so bare with me :)


   Am           F         G         Am           G
e|---------------------------------------------------------------------------|
B|--------------------------0---------1-0-0-1-------0-1-0-1--3--------------|
G|----1-0-0-1------2-------0--0------2-------2-----0-------------------------|
D|---2-------2----3--3----0-----0---2---------2---0--------------------------|
A|--2---------2--3----3------------0-----------------------------------------|
E|-0------------1-------3-----------------------3----------------------------|

ĂŽnscrie-te la newsletter


Like us on Facebook