Kill Chords - 30 Seconds to Mars




Artist: 30 Seconds To Mars
Song: The Kill
Tabbed by: KirSy_@hotmail.com


Almost for sure that this is not the tune that 30 Secs use, but it's what I use.
"Translate" it. ;)


Verse/Chorus
Eb:--------------------------------|
Bb:--------------------------------|
Gb:--6----8----10------------------|
Db:--6----8----10----10------------|
Ab:--4----6----8-----10------------|
Eb:------------------8-------------|

Bridge:
Eb:---------------------------------------|
Bb:---------------------------------------|
Gb:--------10--10---6--8------------------|
Db:-8--10--10--10---6--8--3/5/7/8---------|
Ab:-8--10--8---8----4--6--3/5/7/8---------|
Eb:-6--8------------------1/3/5/6---------|

Eb:--------------------------------|
Bb:--------------------------------|
Gb:--------10--10---6--8--10-------|
Db:-8--10--10--10---6--8--10-------|
Ab:-8--10--8---8----4--6--8--------|
Eb:-6--8---------------------------|

x3
Eb:------|----------------|
Bb:------|----------------|
Gb:--10--|--10-12-13------|
Db:--10--|--10-12-13------|
Ab:--8---|--8--10-11------|
Eb:------|----------------|
    p.m.     (in here, the second guitar goes down)

ĂŽnscrie-te la newsletter


Join the ranks ! LIKE us on Facebook