Story Intro (ver2) Tab - 30 Seconds to Mars




Those other tabs didnt sound quite right so I fixed it. Standard E tuning. If you find a 
here: rader1990@hotmail.com


Intro
Eb:-----------------------------------------|
Bb:-----------------------------------------|
Gb:-----------------------------------------|
Db:--------4-------6------------------------|
Ab:----2-2---2-4-4---------6---4---6--------|
Eb:------------------3-4-4---4---4---4------|

Eb:-----------------------------------------|
Bb:-----------------------------------------|
Gb:-----------------------------------------|
Db:--------4-------6------------------------|
Ab:----2-2---2-4-4---------6---6-4----------|
Eb:------------------3-4-4---4--------------|

Înscrie-te la newsletter

Join the ranks ! LIKE us on Facebook