Story Tab - 30 Seconds to Mars




Artist: 30 Seconds To Mars
Song: The Story
Tabbed by: KirSy_@hotmail.com


Almost for sure that this is not the tune that 30 Secs use, but it's what I use.
"Translate" it. ;)


Verse
Eb:-----------------------------------------|-------------|
Bb:-----------------------------------------|-------------|
Gb:-----------------------------------------|-------------|
Db:--------5-----------7-----------2--------|--3----------|
Ab:-3--3----3---5--5----5---0--0----0-------|--3----------|
Eb:-----------------------------------------|--1----------|


Bridge
Eb:-----------------------|
Bb:-----------------------|
Gb:-----------------------|
Db:---12---3---7---5------|
Ab:---12---3---7---5------|
Eb:---10---1---5---3------|

ĂŽnscrie-te la newsletter

Join the ranks ! LIKE us on Facebook