Was It A Dream Bass Tab - 30 Seconds to Mars




Was it a dream bass tab by andreqpo@hotmail.it

Standard tuning (EADG)

Intro (bass starts at 0:41)
G----------------------------------------------------------------------------------
D-14141414141414141010101010101010141414141414141410101010121212121414141414141414-
A----------------------------------------------------------------------------------|
E----------------------------------------------------------------------------------|

--------------------------------------------------|
-10101010101010101212121212121212-----------------|
---------------------------------1414141414141415-|
--------------------------------------------------|

Verse
G-------------------------------------------------------------------------------------|
D----------------------------------------------------------------9--------------------|
A----7/121210/15~----7/121210/15~171717----7/121210/15~-17~-10\77-7~----7/121210/15~-|
E-5~--------------5~--------------------5~---------------------------5~---------------|

------------------------------------------------------------|
-------------------------------------------1414141414141414-|
----7/121210/15~171717----7/121210/15~-17~------------------|
-5~--------------------5~-----------------------------------|

Chorus
G---------------------------------------------------------------------------|
D------------------------------------------------------------------12121212-|
A----------------------------------------14---------------------------------|
E-888888881010101010101010555555555121212--121212128888888810101010---------|

Post-chorus
G----------------------------------------------------------------------------------
D-14141414141414141010101010101010141414141414141410101010121212121414141414141414-
A----------------------------------------------------------------------------------|
E----------------------------------------------------------------------------------|

--------------------------------------------------|
-10101010101010101212121212121212-----------------|
---------------------------------1414141415151515-|
--------------------------------------------------|

Verse2
G----------------------------------------------------------------------------------------------|
D----------------------------------------------------------------------------9--9-9----9--9-9--|
A----7/121210/15~----7/121210/15~171717----7/121210/151515151414141417~-10\77-77-7---77-77-7--|
E-5~--------------5~--------------------5~-----------------------------------------------------|

Chorus

Chorus2
G----------------------------------------------------------------------------------------------|
D--------------------------------------------------------------------12-12---------------------|
A----------------------------------------14-----------------------------------------8778881010-|
E-888888881010101010101010555555555121212--12121212888888881010101010--10-1055555555-----------|

---------------------------------------------------------------------------------------------------|
---------------------------------------------------------------------------------------------------|
----------------------------------------14---------------------------------------------------------|
-888888881010101010101010555555555121212--12121212888888881010101010101010888888881010101010101010-|

-------------------------------------|
-------------------------------------|
-15151515151515151717171717171717

ĂŽnscrie-te la newsletter

Join the ranks ! LIKE us on Facebook