Song For The Fisherman Bass Tab - 36 Crazyfists




36 Crazyfists - Song for the fisherman

~ = let ring
. = stop note from ringing

Intro: Guitar for 11 seconds
Riff 1 (0:11)
F|------------------|------------------|------------------|------------------|
C|------------------|------------------|------------------|------------------|
G|-7~----------9-10-|-7~----------9-10-|-3~------------5--|-3~---------------|
C|------------------|------------------|------------------|------------------|

Riff 2 (0:22) 
F|-------7----------|-------7----------|-------7----------|-------7----------|
C|---9-7-----9-7-0--|---9-7-----9-7-0--|---9-7-----9-7-0--|---9-7-----9-7-0--|
G|-7-------7--------|-7-------7--------|------------------|------------------|
C|------------------|------------------|-10------10-------|-10------10-------|

Riff 3 (0:33)
F|------------------|------------------|------------------|------------------|
C|------------------|------------------|------------------|------------------|
G|-7~---------------|------------------|-3~------------5--|-3~---------------|
C|------------------|------------------|------------------|------------------|

Riff 1 (0:44)
Riff 2 (0:55) 
End note
F|------------------|------------------|------------------|------------------|
C|------------------|------------------|------------------|------------------|
G|-7~---------------|------------------|-3.---------------|------------------|
C|------------------|------------------|------------------|------------------|


ĂŽnscrie-te la newsletter


Join the ranks ! LIKE us on Facebook