Anything Goes - AC/DC




Song(solo): Anything Goes
Band: AC/DC
Tabbed By: J.Dawg
Tuning: Standard

This is the solo.


Solo:
e|----------10----------10----------10------10-10-------------------|
b|-------10----------10----------10---------10-10-------10-10/15-15-|
g|-12b14-------12b14-------12b14------12b14-------12b14-------------|
d|------------------------------------------------------------------|
a|------------------------------------------------------------------|
e|------------------------------------------------------------------|






e|----------10----------10----------10-------10-10-------|
b|-------10----------10----------10----------10-10-------|
g|-12b14-------12b14-------12b14-------12b14-------12b14-|
d|-------------------------------------------------------|
a|-------------------------------------------------------|
e|-------------------------------------------------------|




e|-----------------------------|
b|-10h13p10h13p10h13p10h13p10~-|
g|-----------------------------|
d|-----------------------------|
a|-----------------------------|
e|-----------------------------|



 
e|-10-10-10-10-12-13-13-13-13-10p7h10p7h10p7/13-13-13-13-13-|
b|-----------------------------------------------------------|
g|-----------------------------------------------------------|
d|-----------------------------------------------------------|
a|-----------------------------------------------------------|
e|-----------------------------------------------------------|





e|-------10-10-------10----10----------10-10-10-10-10-10-|
b|----------------------12----12-10----------------------|
g|-12b14-------12b14----12----12-11----------------------|
d|----------------------------------12-------------------|
a|-------------------------------------------------------|
e|-------------------------------------------------------|





e|-------10---------10---------10-10-10------------------|
b|-----------------------------------12----10------------|
g|-12b14----12b14-14--14-14-14----------12----11---------|
d|-------------------------------------------------------|
a|-------------------------------------------------------|
e|-------------------------------------------------------|

Thats it!

|-----------------|
|  Guitar Key:    |
|                 | 
|  b= Bend        |
|  ~= Vibrato     |
|  h= Hammer on   |
|  p= Pull off    |
|  /= Slide up    |
|  = Slide down  |
|-----------------|

ĂŽnscrie-te la newsletter


Join the ranks ! LIKE us on Facebook