Cyberspace Tab - AC/DC




AC/DC - Cyberspace

Tabbed by MadJack94

Intro
   A                       D        A                       A
|--------------------------2------------------------------------|
|--2-----------------------3--------2-----------------------2---|
|--2-----------------------2--------2-----------------------2---|
|--2-----------------------0--------2-----------------------2---|
|--0-0-3-0---0-3-0---0-3------------0--0-3-0---0-3-0---0-3--0---|
|----------3-------3-------------------------3-------3----------| Play twice

Chorus    
       E              G    E            G  A  D
|----------------|----------------|-----------2---|
|----------------|----------------|--------2--3---|
|------1---------|---------1------|--------2--2---|
|------2---------|----5----2------|-----5--2--0---|
|------2---------|----5----2------|-----5--0------|
|------0---------|----3----0------|-----3---------|

Solo is on the way!

Listen to the song on YouTube for timing. Go to http://www.youtube.com/watch?v=jM-8BuUgq58

ĂŽnscrie-te la newsletter


Join the ranks ! LIKE us on Facebook