Smash N Grab Tab - AC/DC




Smash N' Grab
Ac/Dc
Black Ice

|-Angus---||
|          |
|-Malcolm-||

 I split songs into parts/chunks. NOT MEASURES.
So don't let that confuse you. This is a fairly easy song, 
even funner to play. Thanks to Playinbass1432 for parts of the solo.

e|----------------------||
B|-10~~~~---------------||
G|---------7~~~~-5~~~~~-||
D|----------------------||
A|----------------------||
E|----------------------||
 |                       |x2
 |                       |
e|----------------------||
B|-------3--------------||
G|-2-2-0-2--------------||
D|-2-2-0-0--------------||
A|-0-0------------------||
E|-----3----------------||


e|-------------------|
B|-3-3-3-3--3--3-----|(Both Malcolm and Angus)
G|-2-2-2-2--0--2--2--|
D|-0-0-0-0--0--0--2--|x4
A|----------------0--|
E|-------------------|
 
e|----------------------|-------------------||
B|-10~~~~---------------|-------------------||
G|---------7~~~~-5~~~~~-|-------------------||
D|----------------------|-------------------||
A|----------------------|-------------------||
E|----------------------|-------------------||
 |                                           |x2
 |                                           |
e|----------------------|-------------------||
B|-------3--------------|-------3-----------||
G|-2-2-0-2--------------|-2-2-0-2-----------||
D|-2-2-0-0--------------|-2-2-0-0-----------||
A|-0-0------------------|-0-0---------------||
E|-----3----------------|-----3-------------||

Verse:
e|-------------------|
B|-3-3-3-3--3--3-----|
G|-2-2-2-2--0--2--2--|
D|-0-0-0-0--0--0--2--|x4
A|----------------0--|
E|-------------------|

e|-----------------------------------------------------------------|
B|---------------------------------3-3-3-3-3-3-3-3-3-3-3-3-3-3-3-3-|
G|-5-5-5-5-5-5-5-5-----------------2-2-2-2-2-2-2-2-2-2-2-2-2-2-2-2-|
D|-5-5-5-5-5-5-5-5-3-3-3-3-3-3-3-3-0-0-0-0-0-0-0-0-0-0-0-0-0-0-0-0-|
A|-3-3-3-3-3-3-3-3-3-3-3-3-3-3-3-3---------------------------------|
E|-----------------1-1-1-1-1-1-1-1---------------------------------|

Chorus:
e|----------------------------|---3-3-3-3-3-3-3-3-3-3-3-3-3-3-3-|
B|-------3-3-3--3--3-3-3--3-3-|---3-3-3-3-3-3-3-3-3-3-3-3-3-3-3-|
G|-2---2-2-2-2--0--0-0-2--2-2-|---0-0-0-0-0-0-0-0-0-0-0-0-0-0-0-|
D|-2---2-0-0-0--0--0-0-0--0-0-|x3-0-0-0-0-0-0-0-0-0-0-0-0-0-0-0-|
A|-0---0----------------------|---------------------------------|
E|--------------3--3-3--------|---3-3-3-3-3-3-3-3-3-3-3-3-3-3-3-|

Verse:
e|-------------------|
B|-3-3-3-3--3--3-----|
G|-2-2-2-2--0--2--2--|
D|-0-0-0-0--0--0--2--|x4
A|----------------0--|
E|-------------------|

e|-----------------------------------------------------------------|
B|---------------------------------3-3-3-3-3-3-3-3-3-3-3-3-3-3-3-3-|
G|-5-5-5-5-5-5-5-5-----------------2-2-2-2-2-2-2-2-2-2-2-2-2-2-2-2-|
D|-5-5-5-5-5-5-5-5-3-3-3-3-3-3-3-3-0-0-0-0-0-0-0-0-0-0-0-0-0-0-0-0-|
A|-3-3-3-3-3-3-3-3-3-3-3-3-3-3-3-3---------------------------------|
E|-----------------1-1-1-1-1-1-1-1---------------------------------|


Chorus:

e|----------------------------|---3-3-3-3-3-3-3-3-3-3-3-3-3-3-3-|
B|-------3-3-3--3--3-3-3--3-3-|---3-3-3-3-3-3-3-3-3-3-3-3-3-3-3-|
G|-2---2-2-2-2--0--0-0-2--2-2-|---0-0-0-0-0-0-0-0-0-0-0-0-0-0-0-|
D|-2---2-0-0-0--0--0-0-0--0-0-|x3-0-0-0-0-0-0-0-0-0-0-0-0-0-0-0-|
A|-0---0----------------------|---------------------------------|
E|--------------3--3-3--------|---3-3-3-3-3-3-3-3-3-3-3-3-3-3-3-|



e|----------------------|-------------------||
B|-10~~~~---------------|-------------------||
G|---------7~~~~-5~~~~~-|-------------------||
D|----------------------|-------------------||
A|----------------------|-------------------||
E|----------------------|-------------------||
 |                                           |x2
 |                                           |
e|----------------------|-------------------||
B|-------3--------------|-------3-----------||
G|-2-2-0-2--------------|-2-2-0-2-----------||
D|-2-2-0-0--------------|-2-2-0-0-----------||
A|-0-0------------------|-0-0---------------||
E|-----3----------------|-----3-------------||


Solo: (Thanks to Playinbass1432 for some parts)
e|--------------------------|-------------------|
B|-------12b~-12b~----------|-15b17-13-15-------|
D|-------12b~-12b~--7p5---7-|-------------14~~-|
D|-x\\----------------5---|-------------------|
A|-x\\--------------------|-------------------|
E|-x\\--------------------|-------------------|

e|---------------------------------------|
B|-18b20--17-16-15--13-15----15b17-15b17-|
G|------------------------14-------------|
D|---------------------------------------|
A|---------------------------------------|
E|---------------------------------------|

e|-------------15--------15----------------|
B|-15b17-15b17----15b17-----15b17-15b17r13-|
G|-----------------------------------------|
D|-----------------------------------------|
A|-----------------------------------------|
E|-----------------------------------------|

e|------------|------------------------------------------|
B|------------|-15b17-17-15b17-17-15b17-17-15b17-17r15--|
G|-14~~~~~~---|------------------------------------------|
D|------------|------------------------------------------|
A|------------|------------------------------------------|
E|------------|------------------------------------------|
 |                                                       |
 |                                                       |
e|------------|------------------------------------------|
B|-20b22~~~---|------------------------------------------|
G|------------|------------------------------------------|
D|------------|------------------------------------------|
A|------------|------------------------------------------|
E|------------|------------------------------------------|

e|--------15-12-------------------------------|---------------------|
B|-18b20--------15-13-15p13-15-13~------------|-15b17-13------------|
G|-20~~~---------------------------14p12-14~-|----------14--12-14-|
D|--------------------------------------------|---------------------|
A|--------------------------------------------|---------------------|
E|--------------------------------------------|---------------------|

e|-----------------|
B|-----------------|
G|-----------------|
D|-7-5-------------|
A|-----7-5--3/12

ĂŽnscrie-te la newsletter


Join the ranks ! LIKE us on Facebook