Tnt Live Tab - AC/DC




-----------------------------------------------------------------------------
     TNT (Live) - AC/DC
-----------------------------------------------------------------------------
Tabbed by: thunderstruck24
Email: thunderstruck996@hotmail.com

Tuning: Standard

This is the version of the song that is on the live album. That is why
there are a few differences in the verse and solo. Also, this is my first
tab so tell me what you think.

INTRO:
e|--------------------------------------------------------------------------|
B|--------------------------------------------------------------------------|
G|---1----------------------------------------------------------------------|
D|---2---Let ring for 3 bars------------------------------------------------|
A|---2----------------------------------------------------------------------|
E|---0----------------------------------------------------------------------|

VERSE:
e|--------------------------------------------------------------------------|
B|--------------------------------------------------------------------------|
G|--1----0----2-----2-------------------------------------------------------|
D|--2----0----2-----2-------------------------------------------------------|
A|--2----x----0-----0-------------------------------------------------------|
E|--0----3-------3-----3--0-------------------------------------------------|

CHORUS:
    T  N  T         Watch Me Explode
e|--------------|----------------------|------------------------------------|
B|--------------|----------------------|------------------------------------|
G|--2-----1-----|------2---------------|---------2B~~~~~~-------------------|
D|--2-----2-----|------2---------------|------------------------------------|
A|--0-----2-----|------0---------------|------------------------------------|
E|-----3--0-----|---3------------------|------------------------------------|

SOLO:
e|----------------|--3-2-0-------------15-----------------------------------|
B|----------------|--------3-2-0--------------------8-8-8b------------------|
G|--2B~~~-----2BR-|--------------3-2-0----------------------9-7-9-----------|
D|---------5------|---------------------------------------------------------|
A|----------------|---------------------------------------------------------|
E|----------------|------------------------12------------------------------|

e|-------12-10-----------12--------11b-12-11b-12-12-10----------------------|
B|-10-12-------10B-12-12----11b-12---------------------12-11-10----11b------|
G|--------------------------------------------------------------12----------|
D|--------------------------------------------------------------------------|
A|--------------------------------------------------------------------------|
E|--------------------------------------------------------------------------|

e|-10--------12-10----------------------------15-12-------------------------|
B|-12-12-11b-------12----10----------------12-------15-12-------------------|
G|--------------------12----9-9-9-9-x-12

ĂŽnscrie-te la newsletter


Join the ranks ! LIKE us on Facebook