Whole Lotta Rosie (ver2) Bass Tab - AC/DC




Artist:Ac/Dc
Title:Whola Lotta Rosie
Tuning:EADG
Tabber:Justin van Uum

intro:
G---------------|
D---------------|
A-0-3-0-5-0-3-0-|
E---------------|

main riff:
G-----------------------|
D----------------------:|
A-0-3-0-5-0-3-0-000000-:|
E-----------------------|

Chorus:
G---------------|
D---------------|
A-------5-5-5---|
E1-1-1----------|

G----------|
D---------:|
A0-0-0-3--:|
E-------3--|

G--------------|
D--------------|
A------------0-|into main riff
E-3-2-3-2-3-4--|

I think this tab is kinda wright.
Have fun!

ĂŽnscrie-te la newsletter


Join the ranks ! LIKE us on Facebook