You Shook Me All Night Long Solo Tab - AC/DC




-------------------------------------------------------------------------------
     You Shook Me All Night Long (Solo)- AC/DC
-------------------------------------------------------------------------------

Tabbed by:Aaron Throckmorton
Email:purplechickensonfire@hotmail.com

All the other solo's suck a*s so I just thought I would put the right one in.
It's only the first half but i know it's right so far, I'm workin' on the rest.
Just keep listening to the song and play along with it to get the timing right,
you should be able to get it down pretty good in a day if you're just a beginner.
If you have any questions or comments e-mail me.

AC/DC
You Shook Me All Night Long (Solo)
Back In Black/Who Made Who(1980) Live(1992)
Angus Young, Malcolm Young, Brian Johnson


e|--------------3------------------------------------------------------------|
B|----------------3--6-------------------------------------3-----------------|
G|----5b(7)~~~~---------5b(7)--5--3------------------------3--------3--------|
D|-----------------------------------5---5--3-----------------5--5-----------|
A|-------------------------------------5-------5--3--------------------------|
E|---------------------------------------------------6--3--------------------|

e|---------------------------------------------------------------------------|
B|--------6--6------8--8-----8--10b--8-----8-----12b--8-----8-----15--15-----|
G|----/7--------/9--------9-------------9-----9----------9-----9-------------|
D|---------------------------------------------------------------------------|
A|---------------------------------------------------------------------------|
E|---------------------------------------------------------------------------|

| /  slide up
| ~  vibrato
| b  bend
| 5b(7) bend to note played by 7th fret
===============================================================================

ĂŽnscrie-te la newsletter


Join the ranks ! LIKE us on Facebook