Ave Satanas Tab - Acheron




                          Ave Satanas
             
                              by
                            Acheron

        Transcribed by Miikka Lyytikinen(miikka.lyytikainen@clarinet.fi)
                      
This is just a rough tab... You should listen the song
for timing... But these are the basic riffs for the song,
I didn't tab any solos, cause I couldn't play those myself...


     intro&verse          chorus
E-|-|------------------||------------------------||
B-|-|------------------||------------------------||
G-|-|.----------------.||-----------------------.||
D-|-|.----------------.||----5-4-3----4-3-2-3-2-.||
A-|-|----3-2----2-1-0--||--3-3-2-1--2-2-1-0-1-0--||
E-|-|--1------0--------||--1--------0------------||
                                                                           
   
      break                                                                
        
E-|-|-----------------------------------||
B-|-|-----------------------------------||
G-|-|.---------------------------------.||
D-|-|.---------------------------------.||
A-|-|----2---2---3---3---1---1---2---2--||
E-|-|--0---0---0---0---0---0---0---0----||
                                                                           
   
PLAY LIKE THIS:
      |
    intro x4 (with solo)
    verse x4
    chorus x4
    verse x4
    chorus x4
    break
    chorus (with solo2)
    verse
ĂŽnscrie-te la newsletter


Join the ranks ! LIKE us on Facebook