Same Old Song And Dance Intro Bass Tab - Aerosmith






This is actually the guitar part but I changed it to sound like the bass.
But for this tab remebember as soon as you hit the 12-12, just straight into the next 
It will make it sound better!

G-------------------------------|
D-------------------------------|
A------2-55-2-5-2---------------|
E-0-0-3-----------3-0-----12-12-|

G-----------------------------|
D-----------------------------|
A-----2-55-2-5-2--------------|
E-0-3-----------3-0-----------|

Tuning: Standard

ĂŽnscrie-te la newsletter


Like us on Facebook