Sight For Sore Eyes Tab - Aerosmith






SIGHT FOR SORE EYES

intro:
e-----------------------------------------------------------------|
B-----------------------------------------------------------------|
G-----------------------------------------------------------------|
D--7---5-6-7--------7---5-6-7-------------------------------------|
A-----------------------------------------------------------------|
E-----------------------------------5---3-4-5-----5---3-4-5-------|

e-----------------------------------------------------------------|
B-----------------------------------------------------------------|
G--------------------------------7---7----------------------------|
D--------------------------------7---7----------------------------|
A----7----5----7--------------------------------------------------|
E--------------------5-0-----------------------------------------|

              I turn the screw
e-----------------------------------------------------------------|
B-----------------------------------------------------------------|
G-4---------5------------------4-----------5---------7---8--------|
D-4---------5------------------4-----------5---------7---8--------|
A-2---------3------------------2-----------3---------5---6--------|
E-----------------------------------------------------------------|

ĂŽnscrie-te la newsletter


Join the ranks ! LIKE us on Facebook