Sweet Emotion (ver3) Tab - Aerosmith






----------------------------------------------------------------------------
     Sweet Emotion - Aerosmith
----------------------------------------------------------------------------

Tabbed by:ghostman
Email:imreelstupid90@cox.net

Tuning: normal tuning

Intro:

e|-------------------------------------------------------------------|
B|-------------------------------------------------------------------|
G|-------------------------------------------------------------------|
D|-------5---7-7-----------------------------------------------------| X8
A|---------------5-7p5-----------------------------------------------|
E|---5-5---5---------------------------------------------------------|

Chorus: play about 5 times

e|-------------------------------------------------------------------|
B|-------------------------------------------------------------------|
G|---2---------------------------------------------------------------|
D|---0--2---2--------2-----------------------------------------------| X5
A|------0---0--3p0---0-----------------------------------------------|
E|-----------------3---3---------------------------------------------|

e|-------------------------------------------------------------------|
B|-------------------------------------------------------------------|
G|-------------------------------------------------------------------|
D|-------------------------------------------------------------------| X4
A|---5p3p0--4-4-4-5-5-5-6-7------------------------------------------|
E|----------2-2-2-3-3-3-4-5------------------------------------------|

Coda: play once

e|---------------------------------------------------------------------|
B|---------------------------------------------------------------------|
G|---------------------------------------------------------------------|
D|---------------------------------------------------------------------| X5
A|---5p3p0--4-4-4-5-5-5-6-7^^^^^^^^^^^^^^^^^^^^^^^^^^^^^^^^^^^^^^^^----|
E|----------2-2-2-3-3-3-4-4^^^^^^^^^^^^^^^^^^^^^^^^^^^^^^^^^^^^^^^^----|

e|-------------------------------------------------------------------|
B|-------------------------------------------------------------------|
G|-------------------------------------------------------------------| X
D|-------7---9-9-----------------------------------------------------|
A|---------------7-9p7-----------------------------------------------|
E|---7-7--7----------------------------------------------------------|


| /  slide up
|   slide down
| h  hammer-on
| p  pull-off
| ~  vibrato
| +  harmonic
| x  Mute note
===================================================================

ĂŽnscrie-te la newsletter


Like us on Facebook