Sweet Emotion Intro Tab - Aerosmith






Song: Sweet Emotion (intro)
Artist: Aerosmith
Tabber: Rob (rob@leftatom.com)
Tuning: Drop-D (EGBDAd)
Notes: The intro for this song is so sweet I had to do it.
       Every bass tab I read sounded like crap. Plus I don't
       play bass, I wanted the tab for guitar. So I made it!


Intro:

E-|-----------------------------------|
B-|-----------------------------------|
G-|-----------------------------------|
D-|-----------------------------------|
A-|-------10h12---12-12---------------|
d-|---7-7-------7-------7-12p0-11p0---|

Or...

E-|---------------------------------|
B-|---------------------------------|
G-|---------------------------------|
D-|---------------------------------|
A-|-------10h12---12-12---5p0-4p0---|
d-|---7-7-------7-------7-----------|


Which ever your pinky finger feels like lettin' ya do!


The chords for the actual guitar in the intro can still be
done in Drop-D because you only need the E, B, and G strings.
The Chords are as follows:


A (002220)
D (000232)
A (002220)

The chords repeat this pattern. Start the first "A" when you
first start singing "Swee." Then use the "D" at "Emo," and go back
to A for "Shun". Nice explanation huh?lol HAVE FUN!

ĂŽnscrie-te la newsletter


Join the ranks ! LIKE us on Facebook