Walk This Way Intro (ver2) Tab - Aerosmith






Aerosmith
Walk this Way
Intro, First Verse, and Chorus
Standard Tuning
p= pull off

TABBED EXACTLY RIGHT!

INTRO

E--------------------------------------------------------------------
B--------------------------------------------------------------------
G--------------------------------------------------------------------
D-------2-------2----------2-------2-------2--------2-------2--------
A-0-1-2---0-1-2------0-1-2---0-1-2------------0-1-2---0-1-2----------
E-----------------0-------------------3p0----------------------0-----


E--------------------------------------------------------------------
B--------------------------------------------------------------------
G------------------2-------------------------------------------------
D-------2-------2--2-------------------------------------------------
A-0-1-2---0-1-2----0-------------------------------------------------
E--------------------------------------------------------------------


E--------------------------------------------------------------------
B--------------------------------------------------------------------
G---------0-2----0-5-0-3-0-2-0-(PLAY 8 TIMES)------------------------
D---5-3-5------------------------------------------------------------
A-3------------------------------------------------------------------
E--------------------------------------------------------------------


E--------------------------------------------------------------------
B--------------------------------------------------------------------
G--------------------------------------------------------------------
D-------2-------2----------2-------2-------2--------2-------2--------
A-0-1-2---0-1-2------0-1-2---0-1-2------------0-1-2---0-1-2----------
E-----------------0-------------------3p0----------------------0-----


E--------------------------------------------------------------------
B--------------------------------------------------------------------
G------------------2-------------------------------------------------
D-------2-------2--2-------------------------------------------------
A-0-1-2---0-1-2----0-------------------------------------------------
E--------------------------------------------------------------------


E--------------------------------------------------------------------
B--------------------------------------------------------------------
G---------0-2----0-5-0-3-0-2-0-(PLAY 8 TIMES)------------------------
D---5-3-5------------------------------------------------------------
A-3------------------------------------------------------------------
E--------------------------------------------------------------------

CHORUS

E------5--5-5---------5--5-5-----------------------------------------
B------4--4-4---------4--4-4-----------------------------------------
G-5-5----------------------------------------------------------------
D-5-5----------3-3-3-----------(PLAY 4 TIMES)------------------------
A-3-3----------3-3-3-------------------------------------------------
E--------------1-1-1-------------------------------------------------


TABBED BY BIG AL

ĂŽnscrie-te la newsletter


Like us on Facebook