What It Takes Solo (ver2) Tab - Aerosmith






What It Takes (solo): Aerosmith


GUITAR!!!

|--------------------------------------------10--------------------------------------|
|-------13b^r~~~~~~~~~10-13-10------------------10-13--------------------------------|
|---------------------------------12(12)b^----------------12b^r---10--10~~~~---------|
|-----------------------------------------------------------------------------12-----|
|------------------------------------------------------------------------------------|
|------------------------------------------------------------------------------------|

|------------------------------------------------------------------------------------|
|------------------------------------------------------------------------------------|
|------------------------------------------------------------------------------------|
|--------10-10---------------------------------------------------------------1210---|
|---/12---------12-11-10-8---10b^--10~~~~~--8-10-10b^-8-10-8~~~~~~-10/12-------------|
|------------------------------------------------------------------------------------|

|-------------------------------------------------------------13~~~~~~-10----13b^----|
|---------------------------------------10----13-------------------------10----------|
|------------------------------------------10----12b^--12-10--------------10---------|
|-----108----7------------------10--------------------------------------------------|
|--10-------8---8-----------/12----12-----------------------------------------------|
|-------------------1~~~~~-----------------------------------------------------------|

|~~~~~~~~~~~-13b^-------13b^-------13b^------13b^------13b^------15b^r-13------------|
|------------------10---------10---------10--------10---------10------------15-------|
|---------------------10---------10---------10--------10--------10-------------------|
|------------------------------------------------------------------------------------|
|------------------------------------------------------------------------------------|
|------------------------------------------------------------------------------------|

|--/20~~~~~~-2019-~~~~~-1918~~~~~~~-1817~~~~~~~~-13------------------------------|
|------------------------------------------------------13----10--------------------|
|-------------------------------------------------------------10--------------------|
|------------------------------------------------------------------------------------|
|------------------------------------------------------------------------------------|
|------------------------------------------------------------------------------------|

The End.

Have Fun. Hang Loose. Wear Your Seatbelt. Only You Can Prevent Forest Fires. Peace

~RN'R

ĂŽnscrie-te la newsletter


Join the ranks ! LIKE us on Facebook