What It Takes Solo Tab - Aerosmith






okay, im not really an expert on the guitar, so take it easy
here's the solo part for "what it takes", after steve sings "..the guitar!"

e ---8h10-10-8------8----------10--8-------------------------------------|
B ----------------10-10-8-10-------------10p8----8-----------------------|
G --------------------------------------------10-------------------------|
D --------------------------------------------------12-----10------------|
A -------------------------------------------------------12-----12s10-10-|
E -----------------------------------------------------------------------|

------------------------------------------------------|
------------------------------------------------------|
------------------------------------------------------|
--------------------------------12p10--10s8-8-7-5-----|
-8h10---8h10---8h10p8------10s12----------------------|
----------------------8-------------------------------|

ĂŽnscrie-te la newsletter


Join the ranks ! LIKE us on Facebook