Affliction Tab - AFI




Artist: AFI
Song: Affliction
Album: Decemberunderground (2006)
Tabbed by: Darcy
Contact: www.myspce.com/knifesliesandlullabies


Hi! This song isnt that hard and fun to play. Is all correct apart from the outro which 
but it still sounds fine and almost right.

.=palm mute
b=bend
h=hammer-on
p=pull-off
~=let ring
v=vibratio
//=slide up
\=slide down


intro/verse: (play three times)
e--------------------------------------|
b--------------------------------------|
g-9--x11---10--x11---7--x11---6--x11---|
d-x---------x--------x--------x--------|
a-7---------8--------5--------4--------|
c--------------------------------------|

Pre-chorus:
e-------------------------------------12-12-12-11-11-11--|
b--------------------------------------------------------|
g--------------------------------------------------------|
d-----9-9h10-----9-9h10-10-----9-9h10--------------------|
a-0-0--------0-0-----------0-0---------------------------|
c--------------------------------------------------------|


Chorus:
e------------------------------------------------------------------|
b---0-------0------0--------------------0-----0-------1--------3---|
g-----0-------0---------0------0----------0----0--------0--------0-|
d-------------------------0------0---------------------------------|
a-7-----7-------7-----5-----5-------5-0-----0-----0--3------5------|
c------------------------------------------------------------------|

Bit after chorus:
e------------------|
b------------------|
g------------------|
d-7-7-7-7-7-7--10--|
a-7-7-7-7-7-7--10--|
c-7-7-7-7-7-7--10--|

Play intro/verse
Play pre-chorus
Play chorus
Play bit after chorus two times


Bridge:
e----------------------------------------------------------|
b----------------------------------------------------------|
g----------------------------------------------------------|
d-7--7--9--10--9--7--9--7--3--3--3--3--3--2--2--2--2--2--2-|
a-7--7--9--10--9--7--9--7--3--3--3--3--3--2--2--2--2--2--2-|
c-7--7--9--10--9--7--9--7--3--3--3--3--3--2--2--2--2--2--2-|


Then it changes a bit when singing comes in

e--------------------------------------------------|
b--------------------------------------------------|
g--------------------------------------------------|
d-7--7--9--10--9--7--9--7--3-3-3-3//5--2-2-2-x--5--|
a-7--7--9--10--9--7--9--7--3-3-3-3//5--2-2-2-x--5--|
c-7--7--9--10--9--7--9--7--3-3-3-3//5--2-2-2-x--5--|

Then it changes again when drumming stops:
e----------------------|
b----------------------|
g----------9-7-5-4-----|
d-7-7-7--5-----------3-|
a-7-7-7--5-----------3-|
c-7-7-7--5-----------3-|


Then play the bit after the chorus
Play chorus
Play pre-chorus
Play bit after chorus


Outro:
e------------------------|
b------------------------|
g---9---9---4---6----0---|
d----9---9---4---6-----0-|
a------------------------|
c-7----7---2---4----0----|

And thats it!
Please rate this and comment thanks and good luck!

ĂŽnscrie-te la newsletter


Join the ranks ! LIKE us on Facebook