Decemberunderground (album) Tab - AFI




[Decemberunderground]

By: Joshua Oliveira
Tunings Used: D# G# C# F# A# D# (Regular AFI)
              C# G# C# F# A# D# (Regular AFI, plus Drop D)

Symbols used are listed at the end of the tab, look if you are unsure
of something you see! Also use times to check parts if your not sure
where they take place in the song, that's what they're there for! And
yes AFI does do a couple of songs in Drop D..if yu don't believe me
try to play the songs in regular D# G# C# F# A# D# tuning n see how
it sounds! :)

Also this tab is Huge! So most likely i forgot some things..let me
kno if i did so i can get it in ther..and jsut in case yu were gona
print this, its a good 43 pages long! So yeah..


OK! Here goes..


1.) [Prelude 12/21] - [1:39]
Tuning: D# G# C# F# A# D#

There's not much guitar in this song but I tabbed out some of the
sounds I heard..

[High Pitched Noises] - [00:18] - [00:53]
- ---12~---------|
- ------12-13-10-| I'm gonna be lazy here n say that its played wayy
- -9~------------| to many times to tab out..so just play that from
- ---------------| 00:18 till 00:53.
- ---------------|
- ---------------|

[Orchestra] - [00:56] - [01:08] AND [01:22] - [01:34--|
- ----------------------------------------------------|
- -----10-12---13---10-12-----------------------------| This is that orchestra sorta noise you
- -9---9--11---12---9--11-----------------------------| hear between the Oh's once the song picks
- -9---7--9----10---7--9------------------------------| up. Once again it's played too many times
- -7--------------------------------------------------| to tab each n every one of them.
- ----------------------------------------------------|

Now here's the guitar.

[Actual Guitar] - [01:08] - [01:19]
- ------------------------------------------------------------------|
- ------------------------------------------------------------------|
- ------------------------------------------------------------------|
- -----------------------------------------------9-9-9-9-9-9-9-9-9--|
- -7-7-7-7-7-7-7-7-7-7-7-7-7-7-7-7-7-7-7-7-7-7-7-7-7-7-7-7-7-7-7-7--|
- -------------------------------------------------------0-0-0-0-0--|
PM .......................................

[More Guitar] - [01:22] - [01:35]
- -------------------------------------------------------------------|
- -------------------------------------------------------------------|
- -----------------------------Acoustic------------------------------|
- -------------------------------------------------------------------|
- -7-7-7-7-7-7-7-7-7-7-7-7-7-7-7-7-7-7-7-7-7-7-7-7-7-7-7-7-7-7-7-7-7-|
- -------------------------------------------------------------------|

[End Noise] - [01:35] - [01:39]
- ---12~---------|
- ------12-13-10-|
- -9~------------|
- ---------------|
- ---------------|
- ---------------|


2.) [Kill Caustic] - [2:38]
Tuning: D# G# C# F# A# D#

[Intro] - [00:00] - [00:03]
   V  V  V  V  V
- -6--6--6--6--6--|
- -10-10-10-10-10-|
- -9--9--9--9--9--|
- ----------------|
- ----------------|
- ----------------|

[Verse 1] - [00:03] - [00:32]
- ---------------------------------------------------------------------|
- ---------------------------------------------------------------------|
- ---------------------------------------------------------------------|
- -4-44-44-44-44-4/5-222-4-44-44-44-44-4/5-222-4-44-44-44-44-4/5-222-2-|
- -4-44-44-44-44-4/5-222-4-44-44-44-44-4/5-222-4-44-44-44-44-4/5-222-2-|
- -2-22-22-22-22-2/3-000-2-22-22-22-22-2/3-000-2-22-22-22-22-2/3-000-0-|
PM   ...........     ...   ...........     ...   ...........     ...

  ---------------------------------------------------------------------|
  --------------------------------------------2-2----------------------|
  ------9-9999-----------------------------------2-2-4-1-1-1-----------|
  -2222-x-xxxx--4-4-4-4-4-4-4-4-4-2-4-5-4-2-4----------------2-4-5-4-2-|
  -2222-7-7777--4-----------------2-4-5-4-2-4----------------2-4-5-4-2-|
  -0000-0-0000--2-----------------0-2-3-2-0-2----------------0-2-3-2-0-|
PM                                .........                  .........

  ------------------------------------------------------------------|
  ------------------------------------------------------------------|
  ------------------------9-9999------1111111111-116-6-666-8-8-888-|
  -4-444-444-444/7-2-2222-x-xxxx------x-x-x-x-x--x--x-x-xxx-x-x-xxx-|
  -4-444-444-444/7-2-2222-7-7777-9~---9-9-9-9-9--9-4-4-444-6-6-666-|
  -2-222-222-222/5-0-0000-0-0000------0-0-0-0-0--0--0-0-000-0-0-000-|
PM   ..........

  --------------------------|
  --------------------------|
  -10-10-101010-11-11-11-11-|
  -x--x--x-x-x--x--x--x--x--|
  -8--8--8-8-8--9--9--9--9--|
  -0--0--0-0-0--0--0--0--0--|

[Chorus 1] - [00:32] - [00:51]
- -5-5-5-5-5-5-5-5-5-5-5-5-5-5-5-5-0-0-0-0-0-0-0-0-0-0-0-0-0-0-0-0-----|
- -5-5-5-5-5-5-5-5-5-5-5-5-5-5-5-5-0-0-0-0-0-0-0-0-0-0-0-0-0-0-0-0-----|
- -6-6-6-6-6-6-6-6-6-6-6-6-6-6-6-6-1-1-1-1-1-1-1-1-1-1-1-1-1-1-1-1-----|
- -7-7-7-7-7-7-7-7-7-7-7-7-7-7-7-7-2-2-2-2-2-2-2-2-2-2-2-2-2-2-2-2-12-|
- -7-7-7-7-7-7-7-7-7-7-7-7-7-7-7-7-2-2-2-2-2-2-2-2-2-2-2-2-2-2-2-2-12-|
- -5-5-5-5-5-5-5-5-5-5-5-5-5-5-5-5-0-0-0-0-0-0-0-0-0-0-0-0-0-0-0-0-12-|

  ---------------------------------------------------5-5-5-5-5-5-5-5-5-|
  ---------------------------------------------------5-5-5-5-5-5-5-5-5-|
  -11-9-----------------11-9-14-14-14/16-16-16-16-16-6-6-6-6-6-6-6-6-6-|
  -11-9-x-x-7/9-7-2-x-x-11-9-x--x--x--x--x--x--x--x--7-7-7-7-7-7-7-7-7-|
  -9--7-x-x-7/9-7-2-x-x-9--7-12-12-12/14-14-14-14-14-7-7-7-7-7-7-7-7-7-|
  ------x-x-5/7-5-0-x-x------0--0--0--0--0--0--0--0--5-5-5-5-5-5-5-5-5-|

  -5-5-5-5-5-5-5-0-0-0-0-0-0-4-4-4/5-5-5-5-5--------------------------|
  -5-5-5-5-5-5-5-0-0-0-0-0-0-x-x-x-x-x-x-x-x-5-5----------------------|
  -6-6-6-6-6-6-6-1-1-1-1-1-1-1-1-1/2-2-2-2-2-x-x-119-----------------|
  -7-7-7-7-7-7-7-2-2-2-2-2-2-0-0-0-0-0-0-0-0-2-2-x--x-x-x-7/9-7-2-x-x-|
  -7-7-7-7-7-7-7-2-2-2-2-2-2-----------------0-0-9-7-x-x-7/9-7-2-x-x-|
  -5-5-5-5-5-5-5-0-0-0-0-0-0---------------------0--0-x-x-5/7-5-0-x-x-|

        V  V  V  V  V
  ------6--6--6--6--6--|
  ------10-10-10-10-10-|
  -11-9-9--9--9--9--9--|
  -11-9----------------|
  -9--7----------------|
  ---------------------|

[Verse 2] - [00:51] - [01:20]
- ---------------------------------------------------------------------|
- ---------------------------------------------------------------------|
- ---------------------------------------------------------------------|
- -4-44-44-44-44-4/5-222-4-44-44-44-44-4/5-222-4-44-44-44-44-4/5-222-2-|
- -4-44-44-44-44-4/5-222-4-44-44-44-44-4/5-222-4-44-44-44-44-4/5-222-2-|
- -2-22-22-22-22-2/3-000-2-22-22-22-22-2/3-000-2-22-22-22-22-2/3-000-0-|
PM   ...........     ...   ...........     ...   ...........     ...

  ---------------------------------------------------------------------|
  --------------------------------------------2-2----------------------|
  ------9-9999-----------------------------------2-2-4-1-1-1-----------|
  -2222-x-xxxx--4-4-4-4-4-4-4-4-4-2-4-5-4-2-4----------------2-4-5-4-2-|
  -2222-7-7777--4-----------------2-4-5-4-2-4----------------2-4-5-4-2-|
  -0000-0-0000--2-----------------0-2-3-2-0-2----------------0-2-3-2-0-|
PM                                .........                  .........

  ------------------------------------------------------------------|
  ------------------------------------------------------------------|
  ------------------------9-9999------1111111111-116-6-666-8-8-888-|
  -4-444-444-444/7-2-2222-x-xxxx------x-x-x-x-x--x--x-x-xxx-x-x-xxx-|
  -4-444-444-444/7-2-2222-7-7777-9~---9-9-9-9-9--9-4-4-444-6-6-666-|
  -2-222-222-222/5-0-0000-0-0000------0-0-0-0-0--0--0-0-000-0-0-000-|
PM   ..........

  --------------------------|
  --------------------------|
  -10-10-101010-11-11-11-11-|
  -x--x--x-x-x--x--x--x--x--|
  -8--8--8-8-8--9--9--9--9--|
  -0--0--0-0-0--0--0--0--0--|

[Chorus 2] - [1:20] - [01:46]
- -5-5-5-5-5-5-5-5-5-5-5-5-5-5-5-5-0-0-0-0-0-0-0-0-0-0-0-0-0-0-0-0-----|
- -5-5-5-5-5-5-5-5-5-5-5-5-5-5-5-5-0-0-0-0-0-0-0-0-0-0-0-0-0-0-0-0-----|
- -6-6-6-6-6-6-6-6-6-6-6-6-6-6-6-6-1-1-1-1-1-1-1-1-1-1-1-1-1-1-1-1-----|
- -7-7-7-7-7-7-7-7-7-7-7-7-7-7-7-7-2-2-2-2-2-2-2-2-2-2-2-2-2-2-2-2-12-|
- -7-7-7-7-7-7-7-7-7-7-7-7-7-7-7-7-2-2-2-2-2-2-2-2-2-2-2-2-2-2-2-2-12-|
- -5-5-5-5-5-5-5-5-5-5-5-5-5-5-5-5-0-0-0-0-0-0-0-0-0-0-0-0-0-0-0-0-12-|

  ---------------------------------------------------5-5-5-5-5-5-5-5-5-|
  ---------------------------------------------------5-5-5-5-5-5-5-5-5-|
  -11-9-----------------11-9-14-14-14/16-16-16-16-16-6-6-6-6-6-6-6-6-6-|
  -11-9-x-x-7/9-7-2-x-x-11-9-x--x--x--x--x--x--x--x--7-7-7-7-7-7-7-7-7-|
  -9--7-x-x-7/9-7-2-x-x-9--7-12-12-12/14-14-14-14-14-7-7-7-7-7-7-7-7-7-|
  ------x-x-5/7-5-0-x-x------0--0--0--0--0--0--0--0--5-5-5-5-5-5-5-5-5-|

  -5-5-5-5-5-5-5-0-0-0-0-0-0-4-4-5-5-5-5-5-5--------------------------|
  -5-5-5-5-5-5-5-0-0-0-0-0-0-x-x-x-x-x-x-x-x-5-5----------------------|
  -6-6-6-6-6-6-6-1-1-1-1-1-1-1-1-2-2-2-2-2-2-x-x-119-----------------|
  -7-7-7-7-7-7-7-2-2-2-2-2-2-0-0-0-0-0-0-0-0-2-2-x--x-x-x-7/9-7-2-x-x-|
  -7-7-7-7-7-7-7-2-2-2-2-2-2-----------------0-0-9-7-x-x-7/9-7-2-x-x-|
  -5-5-5-5-5-5-5-0-0-0-0-0-0---------------------0--0-x-x-5/7-5-0-x-x-|

  ------5-5-54-4-4-4-4----|
  ------x-x-x-x-x-x-x-x----|
  -11-9-2-2-21-1-1-1-1----|
  -11-9-0-0-0-0-0-0-0-0----|
  -9--7--------------------|
  ----------------------2~-|

[Bridge] - [01:46] - [02:16]
- ---------------------------------------------------------------|
- ---------------------------------------------------------------|
- -----------------2-------------------------------2-----------2-|
- -4---4-44--4-2-4-2-2-2-4-2-4->444444442222444444442222 <   This represents a Dead Note, but the number inside is where you
      put your fingers while you hit the Dead Note. Apposed to a
      regular Dead Note (x) where you can hit it anywhere.
V     Up Stroke (You hit the string towards you not away from you.)
b     Bend.
r     Release Bend.
{}    Numbers in these are Pinch Harmonics.
-/    Slide Up from a note being held from before without rehitting the
      string before the slide.

ĂŽnscrie-te la newsletter


Join the ranks ! LIKE us on Facebook