Love Is A Many Splendored Thing Tab - AFI




e|-----------|
B|-----------|
G|-9------7--|
D|-9-7-10-7--|
A|-7-7-10-5--|
E|---5-8-----|

e|--------|
B|--------|
G|----7---|
D|9-5-7-7-|
A|9-5-5-7-|
E|7-3---5-|

e|-----------|
B|-----------|
G|-9------7--|
D|-9-7-10-7--|
A|-7-7-10-5--|
E|---5-8-----|

e|--------|
B|--------|
G|----7---|
D|9-5-7-7-|
A|9-5-5-7-|
E|7-3---5-|

e|---|
B|---|
G|---|
D|-2-|
A|-2-|
E|-0-|




e|----------------|
B|----------------|
G|-----6------7---|
D|-2-5-6--2-5-7-7-|
A|-2-5-4--2-5-5-7-|
E|-0-3----0-3---5-|

e|-----------|
B|-----------|
G|-9------7--|
D|-9-7-10-7--|
A|-7-7-10-5--|
E|---5-8-----|

e|--------|
B|--------|
G|----7---|
D|9-5-7-7-|
A|9-5-5-7-|
E|7-3---5-|

e|-----------|
B|-----------|
G|-9------7--|
D|-9-7-10-7--|
A|-7-7-10-5--|
E|---5-8-----|

rhythm and amount of strumming not indicated, but chords are correct. use your ears ;)

ĂŽnscrie-te la newsletter


Join the ranks ! LIKE us on Facebook