Silent Eyes Tab - Aiden






-----------------------------------------------------------------------
     Silent eyes - Aiden
-----------------------------------------------------------------------
Tabbed by: les paul fan
Email: nick.homa@verizon.net

Hey I think this is pretty close to the real thing. I have always loved this song and no 
tabbed it so I gave it a shot. Enjoy!

verse
e|-------------------|     |-----------------|
B|-------------------|     |---------1-11111-|
G|-------------------|     |---------0-00000-|
D|--9-9-9-9-5-5-5-5--| x4  |-5-5-3-3-2-22222-|
A|-7-7-7-7-3-3-3-3---|     |-5-5-3-3-3-33333-|
E|-------------------|     |-3-3-1-1---------|

Chorus
e|-------------2-222-0-000 0-000-----------------------------------------|
B|-1-111-------3-333-0-000 0-000-----------------------------------------|
G|-0-000-4-444-2-222-0-000 0-000-4-4444444-------------9-999------9-9999-|
D|-2-222-4-444-0-000-2-222 2-222-4-4444444-5-555-7-777-9-999--9-9-9-9999-|
A|-3-333-2-222-------2-222 2-222-2-2222222-5-555-7-777-7-777-7-7--7-7777-|
E|-----------------------------------------3-333-5-555-------------------|

verse
e|-------------------|     |-----------------|
B|-------------------|     |---------1-11111-|
G|-------------------|     |---------0-00000-|
D|--9-9-9-9-5-5-5-5--| x4  |-5-5-3-3-2-22222-|
A|-7-7-7-7-3-3-3-3---|     |-5-5-3-3-3-33333-|
E|-------------------|     |-3-3-1-1---------|

Chorus
e|-------------2-222-0-000 0-000-----------------------------------------|
B|-1-111-------3-333-0-000 0-000-----------------------------------------|
G|-0-000-4-444-2-222-0-000 0-000-4-4444444-------------9-999------9-9999-|
D|-2-222-4-444-0-000-2-222 2-222-4-4444444-5-555-7-777-9-999--9-9-9-9999-|
A|-3-333-2-222-------2-222 2-222-2-2222222-5-555-7-777-7-777-7-7--7-7777-|
E|-----------------------------------------3-333-5-555-------------------|

Bridge thing 1
e|-------------------|     |------------------|
B|-------------------|     |------------------|
G|-------------------|     |-9999999999999999-|
D|--5-5-5-5-7-7-7-7--| x4  |-9999999999999999-|
A|-3-3-3-3-5-5-5-5---|     |-7777777777777777-|
E|-------------------|     |------------------|

verse
e|------------------|     |-------------------|
B|------------------|     |---------1-11111---|
G|-9999999955555555-|     |---------0-00000---|
D|-9999999955555555-|x2   |-5-5-3-3-2-22222---|
A|-7777777733333333-|     |-5-5-3-3-3-33333---|
E|------------------|     |-3-3-1-1-----------|
Pm--------------------------------------------|

Outro/chorus
|-------------2-222-0-000-0-000----------|  |------------------------------|
|-1-111-------3-333-0-000-0-000----------|  |------------------------------|
|-0-000-4-444-2-222-0-000-0-000-4-4444444|  |-------------9-999------9-9999|
|-2-222-4-444-0-000-2-222-2-222-4-4444444|x2|-5-555-7-777-9-999--9-9-9-9999|
|-3-333-2-222-------2-222-2-222-2-2222222|  |-5-555-7-777-7-777-7-7--7-7777|
|----------------------------------------|  |-3-333-5-555------------------|

Please rate!

ĂŽnscrie-te la newsletter


Like us on Facebook