Verdelet Bass Tab - Akercocke






Artist- Akercocke
Song- Verdelet
Album- Words That Go Unspoken, Deeds That Go Undone
Tabber- Satan Man
Tabbers Email- death_metal6@hotmail.co.uk
Tuning- C F A# D#

Ive transcribed the bass from the Guitar Pro version by AaronDonahue

D#|-----------------------|-----------------------|
A#|-----------------------|-----------------------|
F-|-------------------32-|-----------------------|
C-|-0-0-0-0-0-0-0-0-0-----|-0-0-0-0-0-0-0-0-0-32-|

D#|-------------------------|-------------|
A#|-------------------------|-------------|
F-|-------------------------|-32---------|
C-|-0-0-0-0-0-0-0-0-0-0-0-0-|-----0-3-2-3-|

D#|-----------------------|-----------------------|
A#|-----------------------|-----------------------|
F-|-------------------32-|-----------------------|
C-|-0-0-0-0-0-0-0-0-0-----|-0-0-0-0-0-0-0-0-0-32-|

D#|-------------------------|-------------|
A#|-------------------------|-------------|
F-|-------------------------|-32---------|
C-|-0-0-0-0-0-0-0-0-0-0-0-0-|-----0-3-2-3-|

D#|---------------------------------|-------------------------------|
A#|---------------------------------|-------------------------------|
F-|---------------------------------|-------------------------------|
C-|-0-0-0-6--6-6-6--6-6-6-6-6-6-67-|-0-0-0-6--2-2--2-2-2-2-2-2/32-|

D#|-----------------------------------|-------------------------------|
A#|-----------------------------------|-------------------------------|
F-|-----------------------------------|-------------------------------|
C-|-0-0-0-6--6-6-6--6-6-6-6-6-6-6-8-9-|-0-0-0-6--2-2--2-2-2-2-2-2/32-|

D#|---------------------------------|----------------------------------|
A#|---------------------------------|----------------------------------|
F-|---------------------------------|----------------------------------|
C-|-0-0-0-6--6-6-6--6-6-6-6-6-6-67-|-0-0-0-6-6-6-2-2--2-2-2-2-2-2-3-3-|

D#|---------------------------------|----------------------------------|
A#|---------------------------------|----------------------------------|
F-|---------------------------------|----------------------------------|
C-|-0-0-0-6--6-6-6--6-6-6-6-6-6-67-|-0-0-0-6-6-6-2-2--2-2-2-2-2-2-3-3-|

D#|----------------|---------------------|
A#|----------------|---------------------|
F-|----0----0----0-|----0----0--0-3-5/10-|
C-|-1r---1r---1r---|-0r---4r-------------|

D#|----------------|---------------------|
A#|----------------|---------------------|
F-|----0----0----0-|----0----0--0-3-5/10-|
C-|-1r---1r---1r---|-0r---4r-------------|

D#|----------------|---------------------|
A#|----------------|---------------------|
F-|----0----0----0-|----0----0--0-3-5/10-|
C-|-1r---1r---1r---|-0r---4r-------------|

D#|----------------|---------------------|
A#|----------------|---------------------|
F-|----0----0----0-|----0----0--0-3-5/10-|
C-|-1r---1r---1r---|-0r---4r-------------|

D#|-------------|-------------|-------------|--------------|
A#|---5-6-5---5-|-------5-----|---5-6-5---5-|-------5-6/12-|
F-|-3-------3---|---7-8---8-7-|-3-------3---|---7-8--------|
C-|-------------|-0-----------|-------------|-0------------|

D#|-------------|-------------|-------------|-------------|-----------------|
A#|---5-6-5---5-|-------5-----|---5-6-5---5-|---3-4-3---3-|-----------------|
F-|-3-------3---|---7-8---8-7-|-3-------3---|-1-------1---|-0r--------------|
C-|-------------|-0-----------|-------------|-------------|--------------4r-|

D#|--------------------------------------------------------|
A#|----------------------------6-------------6---------6-7-|
F-|-0--0-0-0-0-0-0-0-0-0-0-0-0---0-0-0-0-0-0---0-0-0-0-----|
C-|--------------------------------------------------------|

D#|-----------------------------------------------------------|
A#|----------------------------6---------------------6-7-9-10-|
F-|-0--0-0-0-0-0-0-0-0-0-0-0-0---0-0-0-0-0-0-0-0-0-0----------|
C-|-----------------------------------------------------------|

D#|--------------------------------------------------------|
A#|----------------------------6-------------6---------6-7-|
F-|-0--0-0-0-0-0-0-0-0-0-0-0-0---0-0-0-0-0-0---0-0-0-0-----|
C-|--------------------------------------------------------|

D#|-----------------------------------------------------------|
A#|----------------------------6---------------------6-7-9-10-|
F-|-0--0-0-0-0-0-0-0-0-0-0-0-0---0-0-0-0-0-0-0-0-0-0----------|
C-|-----------------------------------------------------------|

D#|--------------------------------------------------------|
A#|----------------------------6-------------6---------6-7-|
F-|-0--0-0-0-0-0-0-0-0-0-0-0-0---0-0-0-0-0-0---0-0-0-0-----|
C-|--------------------------------------------------------|

D#|-----------------------------------------------------------|
A#|----------------------------6---------------------6-7-9-10-|
F-|-0--0-0-0-0-0-0-0-0-0-0-0-0---0-0-0-0-0-0-0-0-0-0----------|
C-|-----------------------------------------------------------|

D#|---0-4-0-4/5-|---0-4-0-4/5-|-----4---54-|-----4---54-|
A#|-------------|-------------|---7---7-----|---7---7-----|
F-|-------------|-------------|-------------|-------------|
C-|-1-----------|-1-----------|-5-----------|-5-----------|

D#|---0-4-0-4/5-|---0-4-0-4/5-|-----4---54-|-----4---54-|
A#|-------------|-------------|---7---7-----|---7---7-----|
F-|-------------|-------------|-------------|-------------|
C-|-1-----------|-1-----------|-5-----------|-5-----------|

D#|---------------|---------------|-------------|---------------|
A#|---------------|---------------|-------------|---------------|
F-|---------------|---------------|-------------|---------------|
C-|-1-1--1--1-1-1-|--1--1-3-3-3-3-|-1--1--1-1-1-|--1--1-3-3-3-3-|

D#|---------------|---------------|---------------|--------------|
A#|---------------|---------------|---------------|--------------|
F-|---------------|---------------|---------------|--------------|
C-|-5-5--5--5-5-5-|--5--5-8-8-8-8-|-5-5--5--5-5-5-|-5--5-8-8-8-8-|

D#|---------------|---------------|-------------|---------------|
A#|---------------|---------------|-------------|---------------|
F-|---------------|---------------|-------------|---------------|
C-|-1-1--1--1-1-1-|--1--1-3-3-3-3-|-1--1--1-1-1-|--1--1-3-3-3-3-|

D#|---------------|---------------|---------------|--------------|
A#|---------------|---------------|---------------|--------------|
F-|---------------|---------------|---------------|--------------|
C-|-5-5--5--5-5-5-|--5--5-8-8-8-8-|-5-5--5--5-5-5-|-5--5-8-8-8-8-|

D#|-------------|-------------|-------------|--------------|
A#|---5-6-5---5-|-------5-----|---5-6-5---5-|-------5-6/12-|
F-|-3-------3---|---7-8---8-7-|-3-------3---|---7-8--------|
C-|-------------|-0-----------|-------------|-0------------|

D#|-------------|-------------|-------------|-------------|
A#|---5-6-5---5-|-------5-----|---5-6-5---5-|---3-4-3---3-|
F-|-3-------3---|---7-8---8-7-|-3-------3---|-1-------1---|
C-|-------------|-0-----------|-------------|-------------|

D#|--------------------------------------------------------|
A#|----------------------------6-------------6---------6-7-|
F-|-0--0-0-0-0-0-0-0-0-0-0-0-0---0-0-0-0-0-0---0-0-0-0-----|
C-|--------------------------------------------------------|

D#|-----------------------------------------------------------|
A#|----------------------------6---------------------6-7-9-10-|
F-|-0--0-0-0-0-0-0-0-0-0-0-0-0---0-0-0-0-0-0-0-0-0-0----------|
C-|-----------------------------------------------------------|

D#|--------------------------------------------------------|
A#|----------------------------6-------------6---------6-7-|
F-|-0--0-0-0-0-0-0-0-0-0-0-0-0---0-0-0-0-0-0---0-0-0-0-----|
C-|--------------------------------------------------------|

D#|-----------------------------------------------------------|
A#|----------------------------6---------------------6-7-9-10-|
F-|-0--0-0-0-0-0-0-0-0-0-0-0-0---0-0-0-0-0-0-0-0-0-0----------|
C-|-----------------------------------------------------------|

D#|--------------------------------------------------------|
A#|----------------------------6-------------6---------6-7-|
F-|-0--0-0-0-0-0-0-0-0-0-0-0-0---0-0-0-0-0-0---0-0-0-0-----|
C-|--------------------------------------------------------|

D#|-----------------------------------------------------------|
A#|----------------------------6---------------------6-7-9-10-|
F-|-0--0-0-0-0-0-0-0-0-0-0-0-0---0-0-0-0-0-0-0-0-0-0----------|
C-|-----------------------------------------------------------|

D#|--------------------------------------------------------|
A#|----------------------------6-------------6---------6-7-|
F-|-0--0-0-0-0-0-0-0-0-0-0-0-0---0-0-0-0-0-0---0-0-0-0-----|
C-|--------------------------------------------------------|

D#|-----------------------------------------------------------|
A#|----------------------------6---------------------6-7-9-10-|
F-|-0--0-0-0-0-0-0-0-0-0-0-0-0---0-0-0-0-0-0-0-0-0-0----------|
C-|-----------------------------------------------------------|

D#|--------------------------------------------------------|
A#|----------------------------6-------------6---------6-7-|
F-|-0--0-0-0-0-0-0-0-0-0-0-0-0---0-0-0-0-0-0---0-0-0-0-----|
C-|--------------------------------------------------------|

D#|-----------------------------------------------------------|
A#|----------------------------6---------------------6-7-9-10-|
F-|-0--0-0-0-0-0-0-0-0-0-0-0-0---0-0-0-0-0-0-0-0-0-0----------|
C-|-----------------------------------------------------------|

D#|--------------------------------------------------------|
A#|----------------------------6-------------6---------6-7-|
F-|-0--0-0-0-0-0-0-0-0-0-0-0-0---0-0-0-0-0-0---0-0-0-0-----|
C-|--------------------------------------------------------|

D#|-----------------------------------------------------------|
A#|----------------------------6---------------------6-7-9-10-|
F-|-0--0-0-0-0-0-0-0-0-0-0-0-0---0-0-0-0-0-0-0-0-0-0----------|
C-|-----------------------------------------------------------|

D#|---0-4-0-54-|-----|---4-----54-|-----|-4-|----| This bit is wrong cos
A#|-------------|---7-|-----7-5-----|---7-|---|----| i couldn't see the
G-|-------------|-----|-0-----------|-----|---|-0--| g*****n notes! Its
C-|-1-----------|-5---|-------------|-5---|---|----| a guess this bit!

D#|--------------------------------|---------------------------------|
A#|--------------------------------|---------------------------------|
G-|--------------------------------|---------------------------------|
C-|-1--1-1-1-1-1-1-1-1-1-1-1-1-1-1-|-1-1-1-1-1-1-1-1-1-1-1-1-1-1-1-1-|

D#|-----|----|----|-----|-----|----|-----|---|
A#|-----|----|----|-----|-----|----|-----|---|
G-|-----|----|-6--|--3--|-----|----|--6--|-3-|
C-|-3-5-|----|----|-----|-3-5-|----|-----|---|

D#|--------------|--------------|-------------|-------------|
A#|-------7------|-------7------|-------7-----|-------7-----|
G-|---X-X--------|---X-X--------|---X-X-------|---X-X-------|
C-|-5--------3-3-|-5--------3-3-|-5-------3-3-|-5-------3-3-|

D#|-----|----|----|-----|-----|----|-----|---|
A#|-----|----|----|-----|-----|----|-----|---|
G-|-----|----|-6--|--3--|-----|----|--6--|-3-|
C-|-3-5-|----|----|-----|-3-5-|----|-----|---|

D#|--------------|--------------|-------------|
A#|-------7------|-------7------|-------7-----|
G-|---X-X--------|---X-X--------|---X-X-------|
C-|-5--------3-3-|-5--------3-3-|-5-------3-3-|

D#|-------------------------|
A#|-------------------------|
G-|-------------------------|
C-|-3-/-6-6--6--6--6--6-6-6-|

D#|--------------|--------------|-------------|
A#|-------7------|-------7------|-------7-----|
G-|---X-X--------|---X-X--------|---X-X-------|
C-|-5--------3-3-|-5--------3-3-|-5-------3-3-|

D#|----------------------------|
A#|----------------------------|
G-|----------------------------|
C-|-3-/-6--6-6-6-6--8-8-8-8-5-|

End!






Like us on Facebook