44 Calliber Love Letter Bass Tab - Alexisonfire






Tuning: Half Step Down (Eb Ab Db Gb)


Gb------------------------------------]
Db---2h5----5/9h10----10/17---17-14---]
Ab------------------------------------]
Db------------------------------------]

INTRO PT 2 (play 12 times)
Gb-------------------------]
Db-------------------------]
Ab-------------------------]
Db-4/6666------------------]

INTRO PT 3 (play 8 times) 
Gb------------------------]
Db--------55h7-5h7-888-7-5]
Ab------------------------]
Db-666666-----------------] (play INTRO PT 2 once after this)

VERSE (play 5 times)
Gb---------------------]
Db---------------------]
Ab---------------------]
Db-4X16-2X16-7X16-6X16-]

play 8 times)
Gb--------------]
Db--------------]
Ab--------------]
Db-2-2---2-2----]

(play 4 times)
Gb-----------------------------------]
Db-----------------------------------]
Ab---------------yes, these are 14's-]
Db-2-2---2-2/14-14-14-14-14-14-14-14-]

play the VERSE riff for the rest of the song






Like us on Facebook