Boiled Frogs Intro Tab - Alexisonfire






Band:Alexisonfire
Song:Boiled Frogs
Album:Crisis
Pic colour:GREEN

Alright so this is an awesome song off alexisonfires album crisis.
This guitar int he intro is great so i thought id put it up.

INtro
e|---------------------------------|
B|---------------------------------|
G|---------------------------------|
D|-88--------------888-------------|
A|----4h6-888-4h6------4h6-888-4h6-|
E|---------------------------------|

e|--------------------------------------------|
B|--------------------------------------------|
G|--------------------------------------------|
D|-11-11-11--------------11-11-11-------------|
A|----------4h6-888-4h6-----------4h6-8888----|
E|--------------------------------------------|

Thankyou and Goodnight






Like us on Facebook