Hey Its Your Funeral Mama (ver4) Tab - Alexisonfire






 This tab comin at ya from Virginia.. Tab to "Hey, It's your funeral mama" by
I've seen many different tabs for this one but none of them sound too right..
this
one's 100%
(at least I hope  so..). Listen to the song 4 rhythm.
Intro:
e:---------------------------------|
b:---------------------------------|
g:5-55-xxxx-xxxx-xx----------------|
d:5-55-xxxx-xxxx-xx----------------|   X2
a:3-33-xxxx-xxxx-xx----------------|
E:---------------------------------|

e:---------------------------------|
b:---------------------------------|
g:---------------------------------|
d:6-66-xxxx-xxxx-xx----------------|   X2
a:6-66-xxxx-xxxx-xx----------------|
E:4-44-xxxx-xxxx-xx----------------|

e:------------- ------------ ------------ ------------|
b:------------- ------------ ------------ ------------|
g:55-55-55-55-- 33-33-33-33- ------------ ------------|
d:55-55-33-55-- 33-33-33-33- 66-66-66-66- 66-66-66-66-|     X2
a:33-33-33-33-- 11-11-11-11- 66-66-66-66- 66-66-66-66-|
E:------------- ------------ 44-44-44-44- 44-44-44-44-|

e:-----------------------3----------|
b:------------------4---------------|
g:----------3---3-5---5-------------|            play fast
d:----1-3/5---5---------------------|
a:1-3-------------------------------|
E:----------------------------------|

e:-----------------------6-3--------|
b:------------------4---------------|
g:----------3---3-5---5-------------|             play fast
d:----1-3/5---5---------------------|
a:1-3-------------------------------|
E:----------------------------------|

Verse:

e:------------------ ---------------|
b:------------------ ---------------|
g:5-55-xxxx-xxxx-xx- -same thing----|
d:5-55-xxxx-xxxx-xx- -same thing----|
a:3-33-xxxx-xxxx-xx- -same thing----|
E:------------------ ---------------|

e:------------------- -------------- 44--33-44-33-----|
b:------------------- -------------- 44--44-44-44-----|
g:------------------- -same thing--- -----------------|
d:6-66-xxxx-xxxx-xx-- -same--------- -----------------|
a:6-66-xxxx-xxxx-xx-- -same--------- -----------------|
E:4-44-xxxx-xxxx-xx-- -------------- -----------------|

Chorus:

e:-----------------------3----------|
b:------------------4---------------|
g:----------3---3-5---5-------------|          play fast
d:----1-3/5---5---------------------|
a:1-3-------------------------------|
E:----------------------------------|

e:-----------------------6-3--------|
b:------------------4---------------|
g:----------3---3-5---5-------------|          play fast
d:----1-3/5---5---------------------|
a:1-3-------------------------------|
E:----------------------------------|

This should be 100% correct... enjoy!






Like us on Facebook