Mailbox Arson Bass Tab - Alexisonfire






100% correct, flat

Verse 1 (00:00  00:13)

Gb|-------------------|
Db|-------------------|
Ab|-4-4-4-4-4-4-4-4---| x4 
Eb|-------------------|

Verse 2 (00:13  00:45)

Gb|-------------------------|
Db|-------------------------|
Ab|-22-44-2-2-7777-4-22-4---| x11 
Eb|-------------------------|

Gb|-------------|
Db|-------------|
Ab|-22-44-2-2---|
Eb|-------------|

Pre-Chorus (00:45  00:55)

Gb|-----------------------------------|
Db|-----------------------------------|
Ab|-4-4-4-4-4-4-4-4-------------------|
Eb|-----------------5-5-5-5-5-5-5-5---|

Gb|-----------------------------------|
Db|-----------------------------------|
Ab|-----------------------------------|
Eb|-2-2-2-2-2-2-2-2-1-1-1-1-0-0-0-0---|

Chorus (00:55  01:17)

Gb|-----------------------------------|
Db|-----------------------------------|
Ab|-4-4-4-4-4-4-4-4-------------------|
Eb|-----------------5-5-5-5-5-5-5-5---|

Gb|-----------------------------------|
Db|-----------------------------------|
Ab|-----------------------------------|
Eb|-2-2-2-2-2-2-2-2-1-1-1-1-0-0-0-0---|

Interlude (01:17  01:27)

N/A

Verse 3 (01:27  01:40)

Gb|-------------------------| 
Db|-------------------------|
Ab|-22-44-2-2-7777-4-22-4---| x7 
Eb|-------------------------|

Gb|-------------|
Db|-------------|
Ab|-22-44-2-2---|
Eb|-------------|

Bridge (01:40  02:42)

Gb|-----------------------------------|
Db|-----------------------------------|
Ab|-4-4-4-4-4-4-4-4-------------------| x3 
Eb|-----------------5-5-5-5-5-5-5-5---|

Gb|-----------------------------------|
Db|-----------------------------------|
Ab|-----------------------------------|
Eb|-5-5-5-5-5-5-5-5-0-0-0-0-0-0-0-0---|

Pre-Chorus (02:42  02:53)

Gb|-----------------------------------|
Db|-----------------------------------|
Ab|-4-4-4-4-4-4-4-4-------------------|
Eb|-----------------5-5-5-5-5-5-5-5---|

Gb|-----------------------------------|
Db|-----------------------------------|
Ab|-----------------------------------|
Eb|-2-2-2-2-2-2-2-2-1-1-1-1-0-0-0-0---|

Chorus 2 (02:53  03:32)

Gb|-----------------------------------|
Db|-----------------------------------|
Ab|-4-4-4-4-4-4-4-4-------------------|
Eb|-----------------5-5-5-5-5-5-5-5---|

Gb|-----------------------------------|
Db|-----------------------------------|
Ab|-----------------------------------|
Eb|-2-2-2-2-2-2-2-2-1-1-1-1-0-0-0-0---|

Gb|-------------|
Db|-------------|
Ab|-4-4-4-4-4---|
Eb|-------------|






Like us on Facebook