This Could Be Anywhere (ver5) Tab - Alexisonfire






-------------------------------------------------------------------------------
             This Could Be Anywhere In The World - Alexisonfire
-------------------------------------------------------------------------------
Tabbed by: Matt Wilham
Email: matt_wilham88@hotmail.com

Tuning: drop d, half a step down ( Db Ab Db Gb Bb Eb )


    intro
eb|------------------------|
Bb|------------------------|
Gb|--77-----77-------777---|
Db|--xx-----xx-------xxx---|
Ab|--55-----55-------555---|
Db|--00-----00-------000---|

    
   
guitar 1 verse just plays this chord

eb|-----|
Bb|-----|
Gb|--3--|
Db|--3--|
Ab|--1--|
Db|-----|


   guitar 2 verse
 
eb|--5-----------5-----3-----5----------3-5-5/6-5------------------|
Bb|---3-5-6-5-3---3-5-6-6-5---3-5-6-5-3-----------------------------|
Gb|----------------------------------------------------77-------77--|
Db|----------------------------------------------------xx-------xx--|
Ab|----------------------------------------------------55-------55--|
Db|----------------------------------------------------00-------00--|


eb|-----6-5-3---------------6-5-3--------8--------------|
Bb|--/3-------55-5/6-6/8--3-------55-5/6-----------------|
Gb|-----------------------------------------77-------77--|
Db|-----------------------------------------xx-------xx--|
Ab|-----------------------------------------55-------55--|
Db|-----------------------------------------00-------00--|


eb|--5-----------5-----3-----5----------3-5-5/6-5----|
Bb|---3-5-6-5-3---3-5-6-6-5---3-5-6-5-3---------------|
Gb|---------------------------------------------------|
Db|---------------------------------------------------|
Ab|---------------------------------------------------|
Db|---------------------------------------------------|

    
    chorus                     guitar 2 plays this after  
    2 times                    you play the chorus once
eb|------------------------|------3-5-5/6-5-------------|
Bb|------------------------|----3------------------------|
Gb|------3-------3---5-----|-----------------------------|
Db|--7---3---5---3---5-----|-----------------------------|
Ab|--5---1---5---1---3-----|-----------------------------|
Db|--0-------5-------------|-----------------------------|

    post chorus/pre verse

eb|------------|
Bb|------------|
Gb|----777----|
Db|----xxx----|
Ab|----555----|
Db|----000-----|


    repeat verse and chorus


    breakdown part 1 (twice)

eb|----------------------------------------------------|
Bb|----------------------------------------------------|
Gb|-107------127-----9/10-10-10--107----------------|
Db|--xx--000--xx--0--x/x---x--x---xx-000----8--00---|
Ab|--85--000-105--0--7/8---8--8---85-000-------00---|
Db|-------000-------0-------------------000--/8---00---|
          ...       .                   ...

   breakdown 2  this is played in the same 
                rhythm as breakdown part 1
eb|----------------------------------------------------|
Bb|----------------------------------------------------|
Gb|--77--------77------77-----7---77------------------|
Db|--xx---000--xx---0--xx--0--x---xx---000----8--00---|
Ab|--55---000--55---0--55--0--5---55---000-------00---|
Db|-------000-------0------0------------000--/8---00---|


   post-breakdown? 

eb|--5~------5~---|
Bb|--6~------5~---|
Gb|--7~------7~---|
Db|--7~------7~---|
Ab|--5~------5~---|
Db|--0~------0~---|

pause for 4 counts   

eb|----------------------------------------------------|
Bb|----------------------------------------------------|
Gb|--77--------77------77-----7---77------------------|
Db|--xx---000--xx---0--xx--0--x---xx---000----8--00---|
Ab|--55---000--55---0--55--0--5---55---000-------00---|
Db|-------000-------0------0------------000--/8---00---|


eb|------------------------------|
Bb|------------------------------|
Gb|--77--------77------77-----7--|
Db|--xx---000--xx---0--xx--0--x--|
Ab|--55---000--55---0--55--0--5--|
Db|-------000-------0------0-----|

   pause for 3 counts, then play chorus twice 

   end on  

eb|-------|
Bb|-------|
Gb|--777--|
Db|--xxx--|
Ab|--555--|
Db|--000--|


  And in case you didn't know:  
   = slide down
  / = slide up
  . = palm mute






Like us on Facebook