To A Friend Bass Tab - Alexisonfire






To a friend - Alexisonfire
Tabbed by : Chris Weafer-Lloyd (kurbz@hotmail.com)
Any fixes / comments welcome

Intro
Gb|----------------------|
db|----------------------|
Ab|----4~-------6~-------|
Db|----------------------|

at 4 seconds

Gb|---------------------------|
db|---------------------------|Play 2 times
Ab|---------------------------|
Db|-3--3~-----3--3~-----6~----|

at 17 seconds

Gb|--------------------------|
db|--------------------------|play 4 times
Ab|----------------4--4~-----|
Db|--3-3~-----6--------------|

Chorus at 40 seconds
"i'll stay in time.."
Gb|---------------------------------------------------|
db|---------------------------------------------------|
Ab|----44444444-----66666666--------------------------|
Db|----------------------------3333333333333-3h66-----|
"i'll draw this line..."
Gb|--------------------------------------------------|
db|--------------------------------------------------|
Ab|----44444444-----66666666-------------------------|
Db|----------------------------3333333333333333333---|
"you shouldn't have to.."
Gb|------------------------------------------------|
db|------------------------------------------------|
Ab|----44444444-----66666666-----------------------|
Db|----------------------------3333333333333-3h66--|

Gb|------------------------------------------------|
db|------------------------------------------------|
Ab|----44444444-----66666666---------------------6-|
Db|----------------------------3333333333333-3-----|

Verse 2 at 1:05

Gb|----------------------------|
db|----------------------------|play 4 times
Ab|-----------------8h6-4-4~---|
Db|---3-3~---3-----------------|

then

Gb|---------------------------------------------------------|
db|---------------------------------------------------------|
Ab|---------6---------------------4-----4---------------4---|
Db|--3-3------------3--3-----------------------3--3---6-----|

Gb|----------------------------------|
db|----------------------------------|
Ab|----------------------------------|
Db|-3-3~----3-3~---3-3-3-3-3-3-------|

2nd Chorus @ 1:54

Gb|------------------------------------------------------------|
db|-------------------------------this is an 11 not two 1's----|
Ab|---4~----6~------8888888888888---11-11----------------------|
Db|------------------------------------------------------------|

"i'll draw this line..."
Gb|--------------------------------------------------|
db|--------------------------------------------------|
Ab|----44444444-----66666666-------------------------|
Db|----------------------------3333333333333333333---|

"you shouldn't have to.."
Gb|------------------------------------------------|
db|------------------------------------------------|
Ab|----44444444-----66666666-----------------------|
Db|----------------------------3333333333333-3h66--|

Gb|------------------------------------------------|
db|------------------------------------------------|
Ab|----44444444-----66666666---------------------6-|
Db|----------------------------3333333333333-3-----|
at 2:18

Gb|------------------------------------------------|
db|------------------------------------------------|
Ab|----------------------------------------------6-|
Db|--3-3~----3-3~------6~------3-3~---3-3~---------|

Gb|----------------------------|
db|----------------------------|play 4 times
Ab|-----66-----66----66--------|
Db|--3~------3-----3-----------|

End

Gb|----------------------------------------------|
db|----------------------------------------------|
Ab|----4~-----6~-----8~-----13/---4~---6~----8---|
Db|----------------------------------------------|

Gb|-----------------------------|
db|-----------------------------|
Ab|----4~-----6~-----8~---11----|
Db|-----------------------------|

Gb|-----------------------------------------|
db|-----------------------------------------|
Ab|----4~-----6~-----8~--------4~----6~-----|
Db|-----------------------------------------|






Like us on Facebook