Young Cardinals ver3 Tab - Alexisonfire






This is how I play the song and I'm pretty sure it's 100% correct.

Tuning: Eb(Half-Step Down)

 Intro     Verse
|--------|----------------------|
|--------|----------------------|
|--6--x8-|--6-------------------|
|--6-----|--6----2-2--7----9-9--|
|--4-----|--4----2-2--7----9-9--|
|--4-----|--4----0-0--5----7-7--|
          Strange Things Happen..
Chorus x2
|-----------------|---------------|
|-----------------|---------------|
|--6--x16-----x12-|---------------|
|--6-------7------|---------------|
|--4-------7------|---------------|
|--4-------5------|-0-2-0-4p2p0-2-|

Verse(Same as other verse except there is strumming between chords)

Chorus(Same as before)

Middle Thing 
|------------------------|Play the notes on the B-string in time with the 
|----9-----7-----5-----7-|snare drum. Slight palm mute on the notes on the 
|--6-----5-----4-----3---|G-string.
|------------------------|
|------------------------|
|------------------------|

|-------------|Play each chord 16 times
|-------------|
|-6--5--4-----|
|-6--5--4--4--|x2
|-4--3--2--4--|
|-4--3--2--2--|

Chorus
|----------------------|---------------|
|----------------------|---------------|
|--6~--------------x16-|---------------|
|--6~----------7-------|---------------|
|--4~----------7-------|---------------|
|--4~----------5-------|-0-2-0-4p2p0-2-|

Outro
|-----------------|
|-----------------|
|--6--------------|
|--6--x16--7--x16-|
|--4-------7------|
|--4-------5------|






Like us on Facebook