Man Of The Year Tab - Alice Cooper






This song rocks! ENJOI..


Rhyhtm - Ryan Roxie
Lead - Eric Dover


Intro
Rhythm
|---------------------------------------------------|
|---------------------------------------------------|
|---------------------------------------------------|
|----4----3----2-------3---10----7------------------|
|----3----2----1-------2----9----6--66666666666666--|
|----3----2----1-------2----9----6--66666666666666--|
PM                                    ............


Lead
|---------------------------------------------------|
|----8----6----3b------1----6b---3~~~~~~~~~~~~~~~~--|
|---------------------------------------------------|
|----------------///-----------------------------|
|----------------///-----------------------------|
|----------------///-----------------------------|
PICK SCRAPE      ......




Verse 1
Rhythm
|--------------------------------------------------------------------|
|--------------------------------------------------------------------|
|--------------------------------------------------------------------|
|--------------------------------------------------------------------|
|--6666666666666666666666666666666633333333000000006666666666666666--|
|--6666666666666666666666666666666633333333000000006666666666666666--| x2
PM ................................................................


Lead
|--------------------------------------------------------------------|
|--------------------------------------------------------------------|
|--------------------------------------------------------------------|
|--------------------------------------------------------------------|
|--------------------------------------------------------------------|
|--6x6x6x6x6x6x6x6x6x6x6x6x6x6x6x6x3x3x3x3x0x0x0x0x6x6x6x6x6x6x6x6x--| x2
MUTE. . . . . . . . . . . . . . . . . . . . . . . . . . . . . . . . 




Chorus
Rhythm
|--------------------------------------------------------------------|
|--------------------------------------------------------------------|
|--------------------------------------------------------------------|
|--------------------------------------------------------------------|
|--9999999988888888777777777777777788888888899999996666666666666666--|
|--9999999988888888777777777777777788888888999999996666666666666666--| x1


Lead
|---------------------------------------------------------------------|
|--8-------6-------3b--------------1--------6b-----3~~~~~~~~~~~~~~~~--|
|---------------------------------------------------------------------|
|---------------------------------------------------------------------|
|---------------------------------------------------------------------|
|---------------------------------------------------------------------|
















ĂŽnscrie-te la newsletter


Like us on Facebook