Might As Well Be On Mars Solo Tab - Alice Cooper






I'm going to put the whole song on sometime, 
but for now here's the intro:


|---------------------------5~-5-6-5--------5h6--10~--8----------------------|
|--------------------6~---6----------6---6h8------------11-10-11-10-------11-|
|--------------5--------7-------------7h8---------------------------10-12----|
|-7-5-7-5-7-5----7-8---------------------------------------------------------|
|-------------5--------------------------------------------------------------|
|----------------------------------------------------------------------------|

|-13~-15----13-11p10----11b-10-------15-15-15-15~-15-13----------------------|
|--------15----------13--------13-11-15-15-15-15~-------15-15b-15-13-11h13p11|
|----------------------------------------------------------------------------|
|----------------------------------------------------------------------------|
|----------------------------------------------------------------------------|
|----------------------------------------------------------------------------|

|----------18-21b-20-18-20~--------------------------------------------------|
|-11-15-16-------------------------------------------------------------------|
|----------------------------------------------------------------------------|
|----------------------------------------------------------------------------|
|----------------------------------------------------------------------------|
|----------------------------------------------------------------------------|

ĂŽnscrie-te la newsletter


Like us on Facebook