My Stars Tab - Alice Cooper






This is the tab for alice cooper's my stars. i learned off of the live version, but the 
real difference is that the opening is longer live.
most of the leads are in here, except for at the intro and the outro.Down at the bottom 
have put the order of which the riffs are played


intro-(riff 1)
e-----------------------|I
B-----------------------|I
G------------------0----|I
D----7--7--7------------|I
A------------5-6-7------|I
E-5---------------------|I
(riff 2)
e---------------------------------------------------------|I
B-------------------------------------------5--8-8p10~----|I
G-9-9-9---9--/-5-5-5---5---7-7-7---7--5--7----------------|I
D-9-9-9-9-9--/-5-5-5-5-5---7-7-7-7-7----------------------|I
A-7-7-7-9-7--/-3-3-3-5-3---5-5-5-7-5----------------------|I
E-------7------------3-----------5------------------------|I

lead line (play 3x)(riff 3)
e-12-10----10--------------------------------------------------------------|I
B-------13----13-12-13-12-10-12-10-----------------------------------------|I
G----------------------------------12-10-12-9-------------------9----------|I
D---------------------------------------------------------------9----------|I
A---------------------------------------------------------------7----------|I
E-----------------------------------------------x0x-x0x-x0x-x0x---x0x-x0x--|I

(continued)
e-----------------------|I
B-----------------------|I
G-----------------------|I
D-----10-9--------------|I
A------8-7--------------|I
E-(x0x)-----------------|I

rhythym part(riff 4)
e--------------------------------------------------------|I
B--------------------------------------------------------|I
G--------------------------------------------------------|I
D--------------------------------------------------------|I
A-----------5--5---5---5h7-------------------------------|I
E-5-5-8-5-8------8---8-------5-5-8-5-8--1--3--5----------|I


(riff 5)(PLAYS ALOT IN THE BACKGROUND)(riff 5)
e--------------------------|I
B--------------------------|I
G-----------6-7-6p7h6------|I
D--7--5--7-----------------|I
A--------------------------|I
E--------------------------|I


1-riff 1 18x   5-riff 1 8x   9-riff 1 15x  13-echoplex outro--|
2-riff 2 3x    6-riff 2 2x  10-riff 5-------------------------| 4x
3-riff 3 3x    7-riff 3 3x  11-riff 1-------------------------| 4x
4-riff 4 6x    8-riff 4 6x  12-riff 5-------------------------| 4x

ĂŽnscrie-te la newsletter


Like us on Facebook