Only Women Bleed Intro Tab - Alice Cooper






-------------------------------------------------------------------------------
Only women bleed intro by Alice Cooper
-------------------------------------------------------------------------------
Tabbed by:Henry Mt
Email:mbgmo@hotmail.com

Tuning:Low to High EADGBE

e|--------7--------7--------------------------------------------------------|
B|-----------8---------8----8------------------------------------------------|
G|-----7--------7---------7--------x2----------------------------------------|
D|---------------------------------------------------------------------------|
A|---------------------------------------------------------------------------|
E|---------------------------------------------------------------------------|

e|---------5-------5---------------------------------------------------------|
B|-----------5-------5---5---------------------------------------------------|
G|-----6--------6------6----------x2-----------------------------------------|
D|---------------------------------------------------------------------------|
A|---------------------------------------------------------------------------|
E|---------------------------------------------------------------------------|

e|---------5---------5-------------------------------------------------------|
B|-------------5--------5-----5----------------------------------------------|
G|-----5----------5--------5-------x2----------------------------------------|
D|---------------------------------------------------------------------------|
A|---------------------------------------------------------------------------|
E|---------------------------------------------------------------------------|

e|---------3---------3-------------------------------------------------------|
B|------------3---------3-----3----------------------------------------------|
G|-----4--------4----------4---------x2--------------------------------------|
D|---------------------------------------------------------------------------|
A|---------------------------------------------------------------------------|
E|---------------------------------------------------------------------------|

e|---------------------------------------------------------------------------|
B|---------------------------------------------------------------------------|
G|--------/7---------repeat--all---------------------------------------------|
D|---------------------------------------------------------------------------|
A|---------------------------------------------------------------------------|
E|---------------------------------------------------------------------------|



| /  slide up               Thats all, hope you like it any comments 
|   slide down             to send them to my mail, thanks.
| h  hammer-on
| p  pull-off
| ~  vibrato
| +  harmonic
| x  Mute note
===============================================================================

ĂŽnscrie-te la newsletter


Like us on Facebook