Rotten Apple (ver3) Tab - Alice in Chains






 1  &  2  &    1  &  2  &   1  &  2  &
e:-------------|------------|-----------|  PLAY 6X
B:-------------|------------|-----------|  VOCALS ENTER
G:-9--9--9--9--|9-----------|7----------|  ON 3RD TIME
D:-9--9--9--9--|9-----------|7------7---|
A:-7--7--7--7--|7-----------|5------7---|
E:-------------|------------|-------5---|

CHORUS RIFF
  G5                        A5
  1  &  2  &   1  &  2  &   1  &  2  &   1  &  2  &
e:------------|------------|------------|------------|
B:------------|------------|------------|------------|
G:------------|------------|------------|------------|
D:5--5--5--5--|5--5--5--5--|7--7--7--7--|7--7--7--7--|
A:5--5--5--5--|5--5--5--5--|7--7--7--7--|7--7--7--7--|
E:3--3--3--3--|3--3--3--3--|5--5--5--5--|5--5--5--5--|
  Bb5                       B5
  1  &  2  &   1  &  2  &   1  &  2  &   1  &  2  &
e:------------|------------|------------|-------------|
B:------------|------------|------------|-------------|
G:------------|------------|------------|-------------|
D:8--8--8--8--|8--8--8--8--|9--9--9--9--|9--9--9--9---|
A:8--8--8--8--|8--8--8--8--|9--9--9--9--|9--9--9--9---|
E:6--6--6--6--|6--6--6--6--|7--7--7--7--|7--7--7--7---|
OUTRO
  1  &  2  &   1  &  2  &   1  &  2  &   1  &  2  &
e:------------|------------|------------|------------|
B:------------|------------|------------|------------|
G:------------|------------|------------|------------|
D:5--5--5--5--|5--5--5--5--|7--7--7--7--|7--7--7--7--|
A:5--5--5--5--|5--5--5--5--|7--7--7--7--|7--7--7--7--|
E:3--3--3--3--|3--3--3--3--|5--5--5--5--|5--5--5--5--|
  I'm                       goin
e:------------|------------|------------|------------------|
B:------------|------------|------------|------------------|
G:------------|------------|------------|------------------|
D:8--8--8--8--|8--8--8--8--|9--9--9--9--|10--10--10--10----|
A:8--8--8--8--|8--8--8--8--|9--9--9--9--|10--10--10--10----|
E:6--6--6--6--|6--6--6--6--|7--7--7--7--|8---8----8--8-----|
  to                     ex-plo-------------------------|

  Db5          D5           Eb5   E5    F5    Gb5
e:------------|------------|------------------------|
B:------------|------------|------------------------|
G:------------|------------|------------------------|
D:11-11-11-11-|12-12-12-12-|------------------------|
A:11-11-11-11-|12-12-12-12-|13----14----15----16----|
E:9--9--9--9--|10-10-10-10-|11----12----13----14----|
  G5    Ab5    A5    Bb5    A5
  1  &  2  &   1  &  2  &   1  &  2
e:------------|------------|------------|
B:------------|------------|------------|
G:------------|------------|------------|
D:------------|------------|7-----------|
A:17----18----|19----20----|7-----------|
E:15----16----|17----18----|5-----------|
  --------------------------------------|de!

I'






Like us on Facebook