Would Solo Tab - Alice in Chains






ALice in chains-Would?

tabbed by XGuitar_1X

i think this is 95% rite.
Solo

e-------------------------------------------------------------------------|
b--------------------------------------------------------------------10---|
g---------------------------------11------------------9/------------------|
d-------11-(12)-----------------------------------------------------------|
a-------------------------------------------------------------------------|
e-------------------------------------------------------------------------|

e---------------------------------------------------------------------------
b---------------------------------------------------------------------------
g---------------------------------------------------------------------------
d---------------------------------------------------------------------------
a---------------------------------------------------------------------------
e-------0--2--2--2--2--0--0--0----2--3---3---3--3---3---0--0---0--0--0--3--0
last 0=x6

e------------------------------------------------------------------------|
b-----------------------------------------------------------------------7|
g------------------------------------------------------------------------|
d--------9---11-11-11------9--11--9------------7----(7)/--------(7)-----|
a------------------------------------------------------------------------|
e------------------------------------------------------------------------|

e-------------------------------------------------------------------|
b------7------------------------------------------------------------|
g-------------------------------------------------------------------|
d---------7---------------------------------------------------------|
a-----------9----(9)-----9----7--9----------------------------------|
e------------------------------------9----------7--9--7----7----7---|

after the solo goes the outro so that seems to be it.






Like us on Facebook