Flesh And Bone (ver3) Tab - Alien Ant Farm




Alien Ant Farm
Flesh And Bone
tabbed by shadowspec
Intro:
E|--22-22-00-00-|
B|--33-33-22-22-|
G|--22-22-22-22-|
D|--00-00-22-22-|
A|--------------|
E|--------------|
Repeat that
Verses are same as intro

Chorus:
E|------------------------------------------------------------------|
B|------------------------------------------------------------------|
G|------------------------------------------------------------------|
D|--7-7-7-7-7-7-7-7-------------------------------------------------|
A|--5-5-5-5-5-5-5-5-7-7-7-7-8-8-8-8-4-4-4-4-4-4-4-4-7-7-7-7-7-7-7-7-|
E|------------------5-5-5-5-6-6-6-6-2-2-2-2-2-2-2-2-5-5-5-5-5-5-5-5-|

Bridge:
E|--------------------------------------------------------------------------|
B|--------------------------------------------------------------------------|
G|--------------------------------------------------------------------------|
D|--------------------------------------------------------------------------|
A|--5-4---------------------7-9-7-9---------------7-9-7-9-5-4---------------|
E|------7-5-7-3-2-0-2-3-5-7-5-7-5-7-7-2-5-0-2-5-7-5-7-5-7-----7-5-7-3-2-0-2-|

E|----------------|
B|----------------|
G|----------------|
D|----------------|
A|--------7-9-7-9-|
E|--3-5-7-5-7-5-7-|

Interlude:
(put your finger over the strings but don't make them sound just put your finger over them)
E|--------------------------|
G|--12----------12----------|
B|-----12----------12-------|
D|--------12----------12----|
A|-----------12----------12-|
E|--------------------------|

Now play
E|--------------------------------------------------|
B|--------------------------------------------------|
G|------------------------------------9-------------|
D|--9-11-9------9-11-9------9-11-9------9-11-9------|
A|---------12-9--------12-9--------12----------12-9-|
E|--------------------------------------------------|
ĂŽnscrie-te la newsletter


Join the ranks ! LIKE us on Facebook