Flesh And Bone Tab - Alien Ant Farm




AlienAntFarm-FleshAndBone 
tabbed by lupus   (lupus182@ziplip.com) 

INTRO 
E-0--0--0--0--2--2--2--2----- 
B-3--3--3--3--2--2--2--2----- 
G-4--4--4--4--2--2--2--2-----  
D----------------------------         
A---------------------------- 
E---------------------------- 


CHORUS 
D5               A5     A#5 B5         D5 x577     
Please show me a sign                  A5 577 
F#5           G5        A5             A#5 688 
Come inside   kneel                    B5 799 
F#5                     G5             F#5 244 
Remember who built your home           G5 355 
A5 
I built you flesh and bone 


BRIDGE 
E------------------------------------------------------- 
B------------------------------------------------------- 
G------------------------------------------------------- 
D------------------------7/9-x-x-x--x-x-7/9-x-x-x------- 
A-5p4-2-0-2--------------7/9-x-x-x--x-x-7/9-x-x-x------- 
E-----------3-2-0-2h3-3--5/7-x-x-x--x-x-5/7-x-x-x------- 

 -------------------------------------------------------- 
 -------------------------------------------------------- 
 -------------------------------------------------------- 
 -9---4---7--2-----------7/9-x-x-x--x-x-7/9-x-x-x-------- 
 -9---4---7--2-----------7/9-x-x-x--x-x-7/9-x-x-x-------- 
 -7---2---5--0--0-2h3-3--5/7-x-x-x--x-x-5/7-x-x-x-------- 

ĂŽnscrie-te la newsletter


Join the ranks ! LIKE us on Facebook