Glow (ver3) Tab - Alien Ant Farm




Alien Ant Farm
Glow
truANT


Tuning:standard
tabbed for both guitar parts

Intro/Verse
e|-------------------------------------------------------------------------|
B|-------------------------------------------------------------------------|
G|-------------------------------------------------------------------------|
D|-------------------------------------------------------------------------|
A|-10-10-10-10-10-10-10-10-10-10-10-10-10----------------------------------|
E|-8--8--0--7--7--0--6--6--0--5--0--5--0-----------------------------------|

You can add this to the second guitar part-harp harmonic w/slide
The part is really played with the bass.
e|-------------------------------------------------------------------------|
B|----------------------------------------8(20)/20-------------------------|
G|-------------------------------------------------------------------------|
D|-------------------------------------------------------------------------|
A|-------------------------------------------------------------------------|
E|-------------------------------------------------------------------------|

e|-------------------------------------------------------------------------|
B|-------------------------------------------------------------------------|
G|-------------------------------------------------------------------------|
D|-------------------------------------------------------------------------|
A|-10-10-10-10-10-10-10-10-10-10-10-10-10-10-10-x-8--8--x-10-10-x-10-10----|
E|-8--8--0--7--7--0--6--6--0--5--0--5--0--8--8--x-10-10-x-11-11-x-10-0-----|


e|-------------------------------------------------------------------------|
B|-------------------------------------------------------------------------|
G|-------------------------------------------------------------------------|
D|-------------------------------------------------------------------------|
A|-10-10--5-5-5-5-5-5-5-5-6-6-6-6-6-6-6-7-7-7-7-7-7-7-7-10-10-10-10-10-10--|
E|-10-0---3-3-3-3-3-3-3-3-3-3-3-3-3-3-3-3-3-3-3-3-3-3-3-7--7--7--7--7--7---|

Chorus gtr. 1  play first part twice then second part then first part
e|-------------------------------------------------------------------------|
B|-------------------------------------------------------------------------|
G|-9-9-------------------------------------9-9-----------------------------|
D|-9-9-10-10-5-5-10-10---------------------9-9-10-10-3-3-3-3---------------|
A|-7-7-10-10-5-5-10-10---------------------7-7-10-10-3-3-3-3---------------|
E|-7-7-8--8--3-3-8--8----------------------7-7-8--8--1-1-1-1---------------|

Chorus gtr. 2
e|-0-0-------------------------------------0-0-------1-1-1-1---------------|
B|-0-0-3-3---3-3-3-3-----------------------0-0-3-3---1-1-1-1---------------|
G|-1-1-0-0---0-0-0-0-----------------------1-1-0-0---2-2-2-2---------------|
D|-2-2-2-2---0-0-3-2-----------------------2-2-2-2---3-3-3-3---------------|
A|-2-2-3-3---2-2-3-3-----------------------2-2-3-3---3-3-3-3---------------|
E|-----------3-3-------------------------------------1-1-1-1---------------|


Solo:Terry/Joe
Background:play chorus-Dryden
e|-------------------------------------------------------------------------|
B|---------------------------------------------------------------------8---|
G|-------12----------14-------14b(16)r14-12------------------------7-9-----|
D|-12/14----14-13-12----12-12---------------7b(8)r(7)p5----5---7/9---------|
A|------------------------------------------------------h7---7-------------|
E|-------------------------------------------------------------------------|

e|-------------------------------------------------------------------------|
B|---------/14-------------------------------------------------------------|
G|-9p7h9-9-/14-12-12-12-12-12----------------------------------------------|
D|-------------------13/14-14-12-12----------------------------------------|
A|----------------------------------14-14-13-13-12-------------------------|
E|-------------------------------------------------------------------------|

e|-------------------------------------------------------------------------|
B|----------------------------------------------12----12-------------------|
G|----------------------------12----12-14-12-14----14----------------------|
D|----------12----12-14-12-14----14----------------------------------------|
A|-14-12-14----14----------------------------------------------------------|
E|-------------------------------------------------------------------------|

e|----------12----12--12-12-12-15-15-14-14-12-12---------------------------|
B|-15-12-15----15--------------------------------15b17-15b17-15------------|
G|--------------------------------------------------------------12-12-12-12|
D|-------------------------------------------------------------------------|
A|-------------------------------------------------------------------------|
E|-------------------------------------------------------------------------|

                                                              trill
e|-15-15-14-14-12-12-------------------------------------------------------|
B|-------------------12/14-------------------------------------------------|
G|-------------------12/14-14b(16)r14p12----12----12h14p12-11h12p11h12p11--|
D|---------------------------------------14----14--------------------------|
A|-------------------------------------------------------------------------|
E|-------------------------------------------------------------------------|

e|-------------------------------------------------------------------------|
B|--------------------------12----12-13--12-15-12-15-12-15-12-15-12-15-12--|
G|-9p11h9-------12-14-12h14----14------------------------------------------|
D|--------12-14------------------------------------------------------------|
A|-------------------------------------------------------------------------|
E|-------------------------------------------------------------------------|

e|-17b(19)-17b(19)-17-15---------------------------------------------------|
B|-----------------------15b17---------------------------------------------|
G|-------------------------------------------------------------------------|
D|-------------------------------------------------------------------------|
A|-------------------------------------------------------------------------|
E|-------------------------------12/---------------------------------------|


ĂŽnscrie-te la newsletter


Join the ranks ! LIKE us on Facebook