Glow Bass Tab - Alien Ant Farm




Standard Tuning

Riff 1
G|---------------------------|
D|---------------------------|
A|---------------------------|
E|-8-8-0-7-7-0-6-6-0-5-5-5-5-|

Riff 2
G|-----------------------------------|
D|-----------------------------------|
A|-----------------------------------|
E|-8-8-0-10-10-0-11-11-0-10-10-10-10-|

Riff 3
G|---------------------------------|
D|---------------------------------|
A|---------------------------------|
E|-3-3-3-3-3-3-3-3-3-3-3-3-3-3-3-3-|

Riff 4
G|---------------------------------|
D|---------------------------------|
A|---------3-3-3-3---------3-3-3-3-|
E|-0-0-0-0---------3-3-3-3---------|

Riff 5
G|---------------------------------|
D|---------------------------------|
A|---------3-3-3-3-0-0-0-0-0-0-0-0-|
E|-0-0-0-0-------------------------|

Order:
G|---------------------------|
D|---------------------------|  x4
A|---------------------------|
E|-8-8-0-7-7-0-6-6-0-5-5-5-5-|

G|-----------------------------------|
D|-----------------------------------|
A|-----------------------------------|
E|-8-8-0-10-10-0-11-11-0-10-10-10-10-|

G|---------------------------------|
D|---------------------------------|
A|---------------------------------|
E|-3-3-3-3-3-3-3-3-3-3-3-3-3-3-3-3-|

G|---------------------------|
D|---------------------------|  x2
A|---------------------------|
E|-8-8-0-7-7-0-6-6-0-5-5-5-5-|

G|-----------------------------------|
D|-----------------------------------|
A|-----------------------------------|
E|-8-8-0-10-10-0-11-11-0-10-10-10-10-|

G|---------------------------------|
D|---------------------------------|
A|---------------------------------|
E|-3-3-3-3-3-3-3-3-3-3-3-3-3-3-3-3-|

G|---------------------------------|
D|---------------------------------|  x2
A|---------3-3-3-3---------3-3-3-3-|
E|-0-0-0-0---------3-3-3-3---------|

G|---------------------------------|
D|---------------------------------|
A|---------3-3-3-3-0-0-0-0-0-0-0-0-|
E|-0-0-0-0-------------------------|

G|---------------------------------|
D|---------------------------------|  x2
A|---------3-3-3-3---------3-3-3-3-|
E|-0-0-0-0---------3-3-3-3---------|

G|---------------------------|
D|---------------------------|  x4
A|---------------------------|
E|-8-8-0-7-7-0-6-6-0-5-5-5-5-|

G|-----------------------------------|
D|-----------------------------------|
A|-----------------------------------|
E|-8-8-0-10-10-0-11-11-0-10-10-10-10-|

G|---------------------------------|
D|---------------------------------|
A|---------------------------------|
E|-3-3-3-3-3-3-3-3-3-3-3-3-3-3-3-3-|

G|---------------------------------|
D|---------------------------------|  x2
A|---------3-3-3-3---------3-3-3-3-|
E|-0-0-0-0---------3-3-3-3---------|

G|---------------------------------|
D|---------------------------------|
A|---------3-3-3-3-0-0-0-0-0-0-0-0-|
E|-0-0-0-0-------------------------|

G|---------------------------------|
D|---------------------------------|  x3
A|---------3-3-3-3---------3-3-3-3-|
E|-0-0-0-0---------3-3-3-3---------|

G|---------------------------------|
D|---------------------------------|
A|---------3-3-3-3-0-0-0-0-0-0-0-0-|
E|-0-0-0-0-------------------------|

G|---------------------------------|
D|---------------------------------|  x2
A|---------3-3-3-3---------3-3-3-3-|
E|-0-0-0-0---------3-3-3-3---------|

G|---------------------------|
D|---------------------------|
A|---------------------------|
E|-8-8-0-7-7-0-6-6-0-5-5-5-5-|

G|---------------------------------|
D|---------------------------------|
A|---------------------------------|
E|-3-3-3-3-3-3-3-3-3-3-3-3-3-3-3-3-|

G|---------------------------------|
D|---------------------------------|  x2
A|---------3-3-3-3---------3-3-3-3-|
E|-0-0-0-0---------3-3-3-3---------|

G|---------------------------------|
D|---------------------------------|
A|---------3-3-3-3-0-0-0-0-0-0-0-0-|
E|-0-0-0-0-------------------------|

G|---------------------------------|
D|---------------------------------|  x3
A|---------3-3-3-3---------3-3-3-3-|
E|-0-0-0-0---------3-3-3-3---------|

G|---------------------------------|
D|---------------------------------|
A|---------3-3-3-3-0-0-0-0-0-0-0-0-|
E|-0-0-0-0-------------------------|

G|---------------------------------|
D|---------------------------------|  x3
A|---------3-3-3-3---------3-3-3-3-|
E|-0-0-0-0---------3-3-3-3---------|

G|---------------------------------|
D|---------------------------------|
A|---------3-3-3-3-0-0-0-0-0-0-0-0-|
E|-0-0-0-0-------------------------|

G|---------------------------------|
D|---------------------------------|  x3
A|---------3-3-3-3---------3-3-3-3-|
E|-0-0-0-0---------3-3-3-3---------|

G|---------------------------------|
D|---------------------------------|
A|---------3-3-3-3-0-0-0-0-0-0-0-0-|
E|-0-0-0-0-------------------------|

G|---------------------------------|
D|---------------------------------|  x3
A|---------3-3-3-3---------3-3-3-3-|
E|-0-0-0-0---------3-3-3-3---------|

G|---------------------------|
D|---------------------------|  x3
A|---------------------------|
E|-8-8-0-7-7-0-6-6-0-5-5-5-5-|

G|---------------------------------|
D|---------------------------------|
A|---------------------------------|
E|-3-3-3-3-3-3-3-3-3-3-3-3-3-3-3-3-|

Thanks, please rate it after you learn it.

ĂŽnscrie-te la newsletter


Join the ranks ! LIKE us on Facebook