Movies (ver3) Bass Tab - Alien Ant Farm




ntro  

G|-----------------------------------------------------|
D|-----------------------------------------------------|
A|-----------------------------------------------------|
E|--5--------------------------------------------------|


Main Riff:  (Verse)

G|-----------------------------------------------------|
D|-----------------------------------------------------|
A|-----------------------------------------------------|
E|--5-5-5-5-3-5-7-7-----5-7-8-8----8-8--7--3--5--------|


Prechorus: (3x)
     
G|-----------------------------------------------------|
D|-------------3--------3------------------------------|
A|-----------------------------------------------------|
E|-1-1-1-1-1------1--1------1--3-3--1------------------|
                              

The fourth Prechorus goes like this:

G|-----------------------------------------------------|
D|-------------3---------------------------------------|
A|-----------------------------------------------------|
E|-1-1-1-1-1---------1--0------3-0-3-5-----------------|


Chorus:

G|-----------------------------------------------------|
D|-----------------------------------------------------|
A|-----------------------------------------------------|
E|-5-5-5-5-5-5---3-3---3-3-1-1---1-1---3-1-3-5---------|


AFter Chorus:   (3x)

G|-----------------------------------------------------|
D|-------------3--------3------------------------------|
A|-----------------------------------------------------|
E|-1-1-1-1-1------1--1-----1--3-3--1-------------------|


Ending  :   then go back to main riff

G|-----------------------------------------------------|
D|-----------------------------------------------------|
A|-----------------------------------------------------|
E|--0----0-0----0--------------------------------------|


Brought to you by the BassMasta
http://www.bassmasta.net/a/alien_ant_farm/164448.html
ĂŽnscrie-te la newsletter


Join the ranks ! LIKE us on Facebook