These Days Bass Tab - Alien Ant Farm




Band- Alien Ant Farm
Song- These Days

Tuning: Standard (E A D G)



Intro
G|--------------------------------------------------------||
D|--------------------------------------------------------||
A|--2-2-2-2-2--2-2-2-2--2-4--5-5-5-5-5--5-5-5-5-5--5-7----||
E|--------------------------------------------------------||

G|--------------------------------------------------------||
D|--------------------------------------------------------||
A|--2-2-2-2-2--2-2-2-2-2--2-4--5-5-5-5--5-5-5-5-5--5-7----||
E|--------------------------------------------------------||


Verse
G|--------------------------------------------------------||
D|--------------------------------------------------------||
A|--------------------------------------------------------||
E|--2-2-2-2--2-2-2-2--2-2--2-2-2-2--2-2-2-2--2-2----------||

G|--------------------------------------------------------||
D|--------------------------------------------------------||
A|--5-5-5-5--5-5-5-5--5-5--7-7-7-7--7-7-7-7--7--9-7-------||
E|--------------------------------------------------------||
Repeat both bars

Chorus
G|--------------------------------------------------------||
D|--------------------------------------------------------||
A|--------------------------------------------------------||
E|---5-5-5-5--5-5-5-5--4-4---2-2-2-2--2-2-2-2--2-4--------||

G|---------------------------------------------------------||
D|---------------------------------------------------------||
A|---------------------------------------------------------||
E|---1-1-1-1--1-1-1-1--2-4--5-5-5-5--5-5-5-5--4-2----------||
Repeat both bars


Verse x2

Chorus x2

Intro x2

Chorus x3

Ending
G|--------------------------------------------------------||
D|--------------------------------------------------------||
A|--------------------------------------------------------||
E|--5-5-5-5--5-5-5-5--4-4--2-2-2-2--2-2-2-2--2-4-1~~------||
ĂŽnscrie-te la newsletter


Join the ranks ! LIKE us on Facebook