Tia Lupe Tab - Alien Ant Farm




Alien Ant Farm
Tia Lupe
truANT


Intro
e|-------------------------------------------------------------------------|
B|-------------------------------------------------------------------------|
G|-------------------------------------------------------------------------|
D|-----5-------6-------3-------1-------------------------------------------|
A|---6---6---5---5---2---2---0---0-----------------------------------------|
E|-8-------6-------3-------1-----------------------------------------------|

Verse variation 1 (only in first verse)
e|-------------------------------------------------------------------------|
B|-------------------------------------------------------------------------|
G|-----------------------------3-------------------------------------------|
D|-----5-------6-----6-8-6---3-----------1-------3---5-----6--5-5-5-5------|
A|---6---6---5---5-5-------4-----------0---0---2-------6-5----5-5-5-5------|
E|-8-------6---------------------3-2-1-------3----------------3-3-3-3------|

Variation 2
e|-------------------------------------------------------------------------|
B|-------------------------------------------------------------------------|
G|---------------------------------------------------7-7-7--7--------------|
D|-----5---------5-------5---------5----5-5-5--5--5--5-5-5--5--------------|
A|---6---6-----6---6---6---6-----6---6--6-6-6--6--6--6-6-6--6--------------|
E|-8-------7-7-------6-------5-5--------4-4-4--4--4--4-4-4--4--------------|

Chorus..strumming not shown

  
e|-------------------------------------------------------------------------|
B|-3-----3-----3-----------------------------------------------------------|
G|-0-----0-----0-------0---------------------------------------------------|
D|-2-----2-----1-------5---------------------------------------------------|
A|-3-----0-----0-------3---------------------------------------------------|
E|-------------1-------4---------------------------------------------------|


Bridge...strumming not shown
e|-6--------5--------------------------------------------------------------|
B|-6--------6--------------------------------------------------------------|
G|-7--------5--------------------------------------------------------------|
D|-8--------5--------------------------------------------------------------|
A|-6--------6--------------------------------------------------------------|
E|-------------------------------------------------------------------------|


For the following strum but add some string mutes in to it
"all the powder on your wings...."                            "I sing"
e|-------------------------------------------------------------------------|
B|-------------------------------------------------------------------------|
G|-7-----------7-----------------------------------------------------------|
D|-8-----------8------------------------------------------------9----------|
A|-6-----------5------------------------------------------------6----------|
E|-------------6------------------------------------------------7----------|

Play intro until end


| /  slide up
|   slide down
| h  hammer-on
| p  pull-off
| ~  vibrato
| +  harmonic
| x  Mute note
===============================================================================

ĂŽnscrie-te la newsletter


Join the ranks ! LIKE us on Facebook