Wish (ver2) Bass Tab - Alien Ant Farm




 SONG:   Wish
 ARTIST: Alien Ant Farm
 ALBUM:  ANThology

 INTRO
   
 G|------------------------------|
 D|-----------------------------------|
 A|--------------------------------|
 E|--2-----2----------3----------2----|

 VERSE

 G|----------------------------------|----------------------------------|
 D|----------------------------------|----------------------------------|
 A|----------------------------------|----------------------------------|X4
 E|--2-2-2-2-2-2-2-2-2-2-2-2-2-2-2-2-|--3-3-3-3-3-3-3-3-3-3-3-3-3-3-3-3-|

 PRE-VERSE        
 
 G|------------------------------|   
 D|-----------------------------------|
 A|--------------------------------|
 E|--2-----2----------3----------2----|

 PRE-CHORUS

 G|------------------------------|   
 D|-----------------------------------|
 A|--------------------------------|
 E|--2-----2----------3----------2----|

 CHORUS

 G|-------------------------------------------------------------|
 D|-------------------------------------------------------------|
 A|-------------------------------------------------------------|
 E|--2-2-2-2-2-2-0-0-0-0-0-0--5-5--3-3--2-2-0-0-3-3-0-0-5-5-3-3-|

 BRIDGE 

 G|------------------|
 D|------------------|
 A|------------------|
 E|--4-4--3--3-3--2--|

 BRIDGE 2

 G|--------------------------|
 D|--------------------------|
 A|--------------------------|
 E|--4-4--3--3-3--2--4-4-3--|

 BRIDGE 3

 G|--------------------------------------|
 D|--------------------------------------|
 A|--------------------------------------|
 E|--2-2-2-2-2-2--0-0-0-0-0-0-5-5-3-3-|

 OUTRO

G|------------------|
D|------------------|
A|------------------|
E|--4-4--3--3-3--2--|

Song Structure

INTRO
VERSE
PRE-VERSE
VERSE
PRE-CHORUS
CHORUS
BRIDGE x 8
BRIDGE 2 x 8
BRIDGE 3 x 8
CHORUS
OUTRO x 8
             (What a wonderful tab...well have fun with it silly heads...)

ĂŽnscrie-te la newsletter


Join the ranks ! LIKE us on Facebook