Six (ver4) Bass Tab - All That Remains






----------------------------------------------------------------------------
     "Six" - All That Remains
----------------------------------------------------------------------------


Tabbed By : Vic Jackson 
e-mail: vjackson83@msn.com



Tuning: DGCF


Intro (0:01)

F|--------------------------------------------------|
C|--------------------------------------------------|
G|--3----5--------------------3----5----/7----(7)--|
D|------------0--(0)----12/-------------------------|

F|---------------------------------------------------------------------|
C|---------------------------------------------------------------------|
G|-3-3-3-3-3-3-3-3-3-3-3-3/5-5-5-5-5-5-5-5-5-5-5-5/10-10-10-10-9-9-9-9-|
D|---------------------------------------------------------------------|

F|-------------------------|
C|-------------------------|
G|-7-7-7-7-7-7-7-7-7-7-7-7-|
D|-------------------------|

F|---------------------------------------------------------------------|
C|---------------------------------------------------------------------|
G|-3-3-3-3-3-3-3-3-3-3-3-3/5-5-5-5-5-5-5-5-5-5-5-5/10-10-10-10-9-9-9-9-|
D|---------------------------------------------------------------------|

F|-------------------------|
C|-------------------------|
G|-7-7-7-7-7-7-7-7-7-7-7-7-|
D|-------------------------|

F|---------------------------------------------------------------------|
C|---------------------------------------------------------------------|
G|-3-3-3-3-3-3-3-3-3-3-3-3/5-5-5-5-5-5-5-5-5-5-5-5/10-10-10-10-9-9-9-9-|
D|---------------------------------------------------------------------|

F|-------------------------|
C|-------------------------|
G|-7-7-7-7-7-7-7-7-7-7-7-7-|
D|-------------------------|

F|---------------------------------------------------------------------|
C|---------------------------------------------------------------------|
G|-3-3-3-3-3-3-3-3-3-3-3-3/5-5-5-5-5-5-5-5-5-5-5-5/10-10-10-10-9-9-9-9-|
D|---------------------------------------------------------------------|

F|-------------------------|
C|-------------------------|
G|-7----7------------------|
D|-----------0-------------|
   ..    .


1st Verse (0:29)

F|-------------------------------------------------|
C|-------------------------------------------------|
G|-------------------------------------------------|
D|-0-0-0---0-0--0-0-0---0-0--0-0-0---0-5-0-7-------|

F|-------------------------------------------------|
C|-------------------------------------------------|
G|-------------------------------------------------|
D|-0-0--0-0-0---0-0--0-0-0---0-0--0-0-0---0-5-0-7--|

F|-------------------------------------------------|
C|-------------------------------------------------|
G|------------------------------------------9---10-|
D|-8-8--8-8-8---8-8--8-8-8---8-8--8-8-8---8---8----|

F|-------------------------------------------------|
C|-------------------------------------------------|
G|------------------------------------------9---10-|
D|-8-8--8-8-8---8-8--8-8-8---8-8--8-8-8---8---8----|

F|-------------------------------------------------|
C|-------------------------------------------------|
G|-------------------------------------------------|
D|-0-0--0-0-0---0-0--0-0-0---0-0--0-0-0---0-5-0-7--|

F|-------------------------------------------------|
C|-------------------------------------------------|
G|-------------------------------------------------|
D|-0-0--0-0-0---0-0--0-0-0---0-0--0-0-0---0-5-0-7--|

F|-------------------------------------------------|
C|-------------------------------------------------|
G|------------------------------------------9---10-|
D|-8-8--8-8-8---8-8--8-8-8---8-8--8-8-8---8---8----|

F|-------------------------------------------------|
C|-------------------------------------------------|
G|-------------------------------------------------|
D|-8-8--8-8-8---8-8--8-8-8---8-8--8-8-8---12------|


Chorus (0:48)

F|-----------------------------------------------------------------|
C|-----------------------------------------------------------------|
G|-2p0-2---2p0-2----------------------2p0-2---2p0-2----------------|
D|-------0-------0-0-0-0--0-0-0---0-0-------0-------0-0-0-0--0-0-0-|

F|-------------------------------------------------------------------------|
C|-------------------------------------------------------------------------|
G|-----2p0-2---2p0-2----------------------2p0-2---2p0-2--------------------|
D|-0-0-------0-------0-0-0-0--0-0-0---0-0-------0-------0-0-0-0--0-0-0--0-0|


2nd Verse (0:58)

F|-------------------------------------------------|
C|-------------------------------------------------|
G|-------------------------------------------------|
D|-0--0-0-0---0-0--0-0-0---0-0--0-0-0---0-5-0-7----|

F|-------------------------------------------------|
C|-------------------------------------------------|
G|-------------------------------------------------|
D|-0-0--0-0-0---0-0--0-0-0---0-0--0-0-0---0-5-0-7--|

F|-------------------------------------------------|
C|-------------------------------------------------|
G|------------------------------------------9---10-|
D|-8-8--8-8-8---8-8--8-8-8---8-8--8-8-8---8---8----|

F|-------------------------------------------------|
C|-------------------------------------------------|
G|------------------------------------------9---10-|
D|-8-8--8-8-8---8-8--8-8-8---8-8--8-8-8---8---8----|

F|-------------------------------------------------|
C|-------------------------------------------------|
G|-------------------------------------------------|
D|-0-0--0-0-0---0-0--0-0-0---0-0--0-0-0---0-5-0-7--|

F|-------------------------------------------------|
C|-------------------------------------------------|
G|-------------------------------------------------|
D|-0-0--0-0-0---0-0--0-0-0---0-0--0-0-0---0-5-0-7--|

F|-------------------------------------------------|
C|-------------------------------------------------|
G|------------------------------------------9---10-|
D|-8-8--8-8-8---8-8--8-8-8---8-8--8-8-8---8---8----|

F|-------------------------------------------------|
C|-------------------------------------------------|
G|-------------------------------------------------|
D|-8-8--8-8-8---8-8--8-8-8---8-8--8-8-8---12------|



Chorus (1:17)

F|-----------------------------------------------------------------------|
C|-----------------------------------------------------------------------|
G|--2p0-2---2p0-2----------------------2p0-2---2p0-2---------------------|
D|--------0-------0-0-0-0--0-0-0---0-0-------0-------0-0-0-0--0-0-0--0-0-|

F|-----------------------------------------------------------------|
C|-----------------------------------------------------------------|
G|--2p0-2---2p0-2----------------------2p0-2-------2-1-------------|
D|--------0-------0-0-0-0--0-0-0---0-0-------0-2-3-----4-3-2-3-2-1-|

F|-----------------------------------------------------------------------|
C|-----------------------------------------------------------------------|
G|--2p0-2---2p0-2----------------------2p0-2---2p0-2---------------------|
D|--------0-------0-0-0-0--0-0-0---0-0-------0-------0-0-0-0--0-0-0--0-0-|

F|----------------------------------------------------|
C|----------------------------------------------------|
G|--2p0-2---2p0-2-----------------------2-0-2---2-0-2-|
D|--------0-------0-0-0-0--0-0-0---0-0----------------|
                                        . . .   . . .

Interlude (1:37)

F|---------------------------------------------|
C|---------------------------------------------|
G|--3----(3)----/5----(5)----/7----(7)----(7)-|
D|---------------------------------------------|

F|---------------------------------------------|
C|---------------------------------------------|
G|--3----(3)----/5----(5)----/7----(7)----(7)-|
D|---------------------------------------------|

F|-------------------------------------------------------------------------|
C|-------------------------------------------------------------------------|
G|-------10------------------7----(7)---------10------------------7----(7)-|
D|--8-------8--10--(10)--10---------------8-------8--10--(10)--10----------|

F|---------------------------------------/9--7-------------|
C|----------------------------------------------9--7-------|
G|-------10-----------9------7----(7)-----------------0-0--|
D|--8-------8--10--------10--------------------------------|

F|---------------------------------------/9--7-------------|
C|----------------------------------------------9--7-------|
G|-------10-----------9------7----(7)-----------------0-0--|
D|--8-------8--10--------10--------------------------------|


Bridge/Solo (2:08)

F|---------------------------------------------------------|
C|---------------------------------------------------------|
G|-------10---------------------7-5-7---7-5-7--------------|
D|--8----------10----(10)-10-10-------0-------0-0-0--12---|

F|---------------------------------------------------------|
C|---------------------------------------------------------|
G|-------10---------------------7--------------------------|
D|--8----------10----(10)-10-10----------------------------|

F|---------------------------------------------------------|
C|---------------------------------------------------------|
G|-------10---------------------7-5-7---7-5-7--------------|
D|--8----------10----(10)-10-10-------0-------0-0-0--12---|

F|---------------------------------------------------------|
C|---------------------------------------------------------|
G|-------10---------------------7--------------------------|
D|--8----------10----(10)-10-10----------------------------|

F|---------------------------------------------------------|
C|---------------------------------------------------------|
G|-------10---------------------7-5-7---7-5-7--------------|
D|--8----------10----(10)-10-10-------0-------0-0-0--12---|

F|---------------------------------------------------------|
C|---------------------------------------------------------|
G|-------10---------------------7-5-7---7-5-7--------------|
D|--8----------10----(10)-10-10-------0-------0-0--12-----|

Chorus (2:38)

F|-----------------------------------------------------------------------|
C|-----------------------------------------------------------------------|
G|--2p0-2---2p0-2----------------------2p0-2---2p0-2---------------------|
D|--------0-------0-0-0-0--0-0-0---0-0-------0-------0-0-0-0--0-0-0--0-0-|

F|-----------------------------------------------------------------|
C|-----------------------------------------------------------------|
G|--2p0-2---2p0-2----------------------2p0-2-------2-1-------------|
D|--------0-------0-0-0-0--0-0-0---0-0-------0-2-3-----4-3-2-3-2-1-|

F|-----------------------------------------------------------------------|
C|-----------------------------------------------------------------------|
G|--2p0-2---2p0-2----------------------2p0-2---2p0-2---------------------|
D|--------0-------0-0-0-0--0-0-0---0-0-------0-------0-0-0-0--0-0-0--0-0-|

F|---------------------------------------------------------|
C|---------------------------------------------------------|
G|--2p0-2---2p0-2------------------------------------------|
D|--------0-------0-0-0-0--0-0-0---0-0--0------0-0--12----|
                                        .      . .   

Outro  (2:58)

F|---------------------------------------------------------------------|
C|---------------------------------------------------------------------|
G|-3-3-3-3-3-3-3-3-3-3-3-3/5-5-5-5-5-5-5-5-5-5-5-5/10-10-10-10-9-9-9-9-|
D|---------------------------------------------------------------------|

F|-------------------------|
C|-------------------------|
G|-7-7-7-7-7-7-7-7-7-7-7-7-|
D|-------------------------|

F|---------------------------------------------------------------------|
C|---------------------------------------------------------------------|
G|-3-3-3-3-3-3-3-3-3-3-3-3/5-5-5-5-5-5-5-5-5-5-5-5/10-10-10-10-9-9-9-9-|
D|---------------------------------------------------------------------|

F|-------------------------|
C|-------------------------|
G|-7-7-7-7-7-7-7-7-7-7-7-7-|
D|-------------------------|

F|---------------------------------------------------------------------|
C|---------------------------------------------------------------------|
G|-3-3-3-3-3-3-3-3-3-3-3-3/5-5-5-5-5-5-5-5-5-5-5-5/10-10-10-10-9-9-9-9-|
D|---------------------------------------------------------------------|

F|-------------------------|
C|-------------------------|
G|-7-7-7-7-7-7-7-7-7-7-7-7-|
D|-------------------------|

F|---------------------------------------------------------------------|
C|---------------------------------------------------------------------|
G|-3-3-3-3-3-3-3-3-3-3-3-3/5-5-5-5-5-5-5-5-5-5-5-5/10-10-10-10-9-9-9-9-|
D|---------------------------------------------------------------------|

F|-------------------------|
C|-------------------------|
G|-7----7------------------|
D|-----------0-------------|
   ..    .


|(0) let note ring
| .  accent
| /  slide up
|   slide down
| h  hammer-on
| p  pull-off
| ~  vibrato
| +  harmonic
| x  Mute note
===========================================================================