Coffee Shop Soundtrack Tab - All Time Low




Song:Coffeeshop Soundtrack
Artist:All Time Low
Album:Put Up Or Shut Up
Tuning:eBGDAE
Tabed by: Ben, S


I cant find a single good tab for this so im doin it my self! The verses are obviously wrong
but play what i wrote it still sounds good. The Strumming pattern may be off but its 
too
figure out. I can know theres a lead guitar but i cant make it out if u make the e chord 
the chorus a major chord and bar chord the rest this fits really good for the acoustic version.


Intro/verse1
e:-----------------------------------------------|
B:-----------------------------------------------|
G:666666-----------------------------------------|x2
D:666666-7777777777------------------------------|
A:444444-7777777777------------------------------|
E:-------5555555555------------------------------|
pm..................

e:-------------------------------------------------|
B:-------------------------------------------------|
G:666666--------------99999999---------------------|x2
D:666666-7777777777---99999999-99999999------------|
A:444444-7777777777x2-77777777-99999999------------|
E:-------5555555555------------77777777------------|


Chorus
e:------------------------------------------------|
B:------------------------------------------------|
G:---------22222222-66-44-22222222----------------|
D:22222222-22222222-66-44-22222222----------------|
A:22222222-00000000-44-22-00000000----------------|
E:00000000----------------------------------------|

e:---------------------------------------------------|
B:---------------------------------------------------|
G:---------22222222-66-44-66-44-2222-----------------|
D:22222222-22222222-66-44-66-44-2222-2~~~------------|
A:22222222-00000000-44-22-44-22-0000-2~~~------------|
E:00000000---------------------------0~~~------------|

verse2 (guitar comes about half way through the verse)
e:------------------------------------------------|
B:------------------------------------------------|
G:6666-5555-4444-3333-22222222-44444444-----------|
D:6666-6666-4444-4444-22222222-44444444-----------|
A:4444-3333-2222-1111-00000000-22222222-----------|
E:------------------------------------------------|

chorus
e:------------------------------------------------|
B:------------------------------------------------|
G:---------22222222-66-44-22222222----------------|
D:22222222-22222222-66-44-22222222----------------|
A:22222222-00000000-44-22-00000000----------------|
E:00000000----------------------------------------|

e:------------------------------------------------|
B:------------------------------------------------|
G:---------22222222-66-44-22222222----------------|
D:22222222-22222222-66-44-22222222----------------|
A:22222222-00000000-44-22-00000000----------------|
E:00000000----------------------------------------|

Bridge1
e:--------------------|
B:--------------------|
G:6666-5555-4444-3333-|
D:6666-6666-4444-4444-|x3
A:4444-3333-2222-1111-|
E:--------------------|

e:---------------------|
B:---------------------|
G:6666-5555-2222222444-|
D:6666-6666-2222222444-|
A:4444-3333-0000000222-|
E:---------------------|
pm          .......
verse3 (same as chouses except some is palm muted)
e:-------------------------------------------------|
B:-------------------------------------------------|
G:---------22222222-6666-4444-22222222-------------|
D:22222222-22222222-6666-4444-22222222-------------|
A:22222222-00000000-4444-2222-00000000-------------|
E:00000000-----------------------------------------|
p.m...................................

e:-------------------------------------------------|
B:-------------------------------------------------|
G:---------22222222-66---44---22222222-------------|
D:22222222-22222222-66---44---22222222-------------|
A:22222222-00000000-44---22---00000000-------------|
E:00000000-----------------------------------------|
pm.................
chorus/End
e:----------------------------------------------------|
B:----------------------------------------------------|
G:---------22222222-6666-4444-22222222----------------|
D:22222222-22222222-6666-4444-22222222----------------|
A:22222222-00000000-4444-2222-00000000----------------|
E:00000000--------------------------------------------|

e:----------------------------------------------------|
B:----------------------------------------------------|
G:---------22222222-66-44-2~~~~~~~--------------------|
D:22222222-22222222-66-44-2~~~~~~~--------------------|
A:22222222-00000000-44-22-0~~~~~~~--------------------|
E:00000000--------------------------------------------|

Well dats about it if i missed any thing tell me please rate this is my first tab but
go to easy :-)

ĂŽnscrie-te la newsletter


Join the ranks ! LIKE us on Facebook