Hit The Lights Intro Tab - All Time Low




Hey guys. This is the Intro for "Hit The Lights" by All Time Low. The rest of the song is still to come.


Intro
Guitar 1
e|---------------------|
B|---------------5h6---|
G|------4-4---4-4------|
D|---2-2---2-2---------| x4
A|---------------------|
E|---------------------|
     . ..  . ..

Guitar 2
(After Guitar 1 x2)
e|---0~--------0~-------0~----|
B|---0~--------0~-------0~----|
G|---2~----2-2-0~-------2~----|
D|---2~----2-2-2~---2-2-2~----|
A|---0~----0-0-2~---2-2-0~----|
E|---x---------0~---0-0-x-----|

ĂŽnscrie-te la newsletter


Join the ranks ! LIKE us on Facebook